Antiseen

Haunted House

Antiseen

tabs

by  IRONPOWER4EVER

save to print version add songbook text version e-mail correct tuner
chordsukulelecavacokeyboardtabbassdrumsharmonicaflute Guitar Pro
close

there isn't a video lesson for this song

chords

Haunted House

	  		Whole Song 
E-----------------------------------------------------------------------------------| 
B-----------------------------------------------------------------------------------| 
G---------------------------------7-7-7-7-7-7-7-7-7-7-7-7--9-9-9-9-9-9-9-9-9--------| 
D--------7-7-7-7-7-7-7-7-7-7-7-7--7-7-7-7-7-7-7-7-7-7-7-7--9-9-9-9-9-9-9-9-9--------| 
A--------7-7-7-7-7-7-7-7-7-7-7-7--5-5-5-5-5-5-5-5-5-5-5-5--7-7-7-7-7-7-7-7-7--------| 
E--------5-5-5-5-5-5-5-5-5-5-5-5----------------------------------------------------| 

E-------------------| 
B-------------------| 
G-------------------| 
D-7-7-7-7-7-7-7-7-7-| 
A-7-7-7-7-7-7-7-7---| 
E-5-5-5-5-5-5-5-5-5-| 


Key Change (played the last 2 times) 
E-----------------------------------------------------------------------------------| 
B-----------------------------------------------------------------------------------| 
G---------------------------------9-9-9-9-9-9-9-9-9-9-9-9--111111111111111111-------| 
D--------9-9-9-9-9-9-9-9-9-9-9-9--9-9-9-9-9-9-9-9-9-9-9-9--111111111111111111-------| 
A--------9-9-9-9-9-9-9-9-9-9-9-9--7-7-7-7-7-7-7-7-7-7-7-7--9-9-9-9-9-9-9-9-9--------| 
E--------7-7-7-7-7-7-7-7-7-7-7-7----------------------------------------------------| 

E-------------------| 
B-------------------| 
G-------------------| 
D-9-9-9-9-9-9-9-9-9-| 
A-9-9-9-9-9-9-9-9-9-| 
E-7-7-7-7-7-7-7-7-7-| 
		  

auto scroll beats size up size down change color hide chords drawings
tab show chords e-chords YouTube Clip e-chords hide all tabs e-chords go to top tab

share