Antiseen

Evil Rock N Roll

Antiseen

tabs

by  VICTBORGES

save to print version add songbook text version e-mail correct tuner
chordsukulelecavacokeyboardtabbassdrumsharmonicaflute Guitar Pro
close

there isn't a video lesson for this song

chords

Evil Rock N Roll

	  		Verse 
E---------------------------| 
B---------------------------| 
G-9-9--9-9------------------| 
D-9-9--9-9--7-7-7-7-9-9-9-9-| 
A-7-7--7-7--7-7-7-7-9-9-9-9-| 
E-----------5-5-5-5-7-7-7-7-| 

Chorus                             x3 
E------------------------------------|------------------| 
B------------------------------------|------------------| 
G-------------------9-9-9-9--6-6-6-6-|------------------| 
D-7-7-7-7--9-9-9-9--9-9-9-9--6-6-6-6-|-7-7-7-7--9-9-9-9-| 
A-7-7-7-7--9-9-9-9--7-7-7-7--4-4-4-4-|-7-7-7-7--9-9-9-9-| 
E-5-5-5-5--7-7-7-7-------------------|-5-5-5-5--7-7-7-7-| (Then always right back to the Verse) 

The music is actually "God Of Fire and Hell" by GG Allin 

Just listen for order 
		  

auto scroll beats size up size down change color hide chords drawings
tab show chords e-chords YouTube Clip e-chords hide all tabs e-chords go to top tab

share