Antiseen

Absent Minded

Antiseen

tabs

by  TAMAMOREIRA

save to print version add songbook text version e-mail correct tuner
chordsukulelecavacokeyboardtabbassdrumsharmonicaflute Guitar Pro
close

there isn't a video lesson for this song

chords

Absent Minded

	  		Verse 
E----------------------------------------------------------------------| 
B----------------------------------------------------------------------| 
G-9-9-9-9-9-9-9-9-------------------7-7-7-7-7-7-7-7-7------------------| 
D-9-9-9-9-9-9-9-9--9-9-9-9-9-9-9-9--7-7-7-7-7-7-7-7-7--7-7-7-7-7-7-7-7-| 
A-7-7-7-7-7-7-7-7--9-9-9-9-9-9-9-9--5-5-5-5-5-5-5-5-5--7-7-7-7-7-7-7-7-| 
E------------------7-7-7-7-7-7-7-7---------------------5-5-5-5-5-5-5-5-| 


Chorus          x4 
E-----------------|-----------------------------------------------| 
B-----------------|-----------------------------------------------| 
G-----------------|-9-------------------9-------------------------| 
D-9-----7---------|-9-------------------9-------------------------| 
A-7--9--5--7--5-7-|-7-------------------7-------------------------| 
E----7-----5--3-5-|-----------------------------------------------| 


Nothing to it, listen for order 
		  

auto scroll beats size up size down change color hide chords drawings
tab show chords e-chords YouTube Clip e-chords hide all tabs e-chords go to top tab

share