Anthony Phillips

Which Way The Wind Blows

Anthony Phillips

tabs Advanced advanced

by  EDUCASTILHO

save to print version add songbook text version e-mail correct tuner
chordsukulelecavacokeyboardtabbassdrumsharmonicaflute Guitar Pro
close

there isn't a video lesson for this song

chords

Which Way The Wind Blows

	  		
 




|4--2--0--0---x--7--5--4-0-5--4--0-7| 
|5--0--0--0---15-7--5--5-5-5--5--5-5| 
|6--1--2--1---9--9--6--6-6-6--6--6-6| 
|7--2--4--2---11-6--4--4-4-4--4--4-4| 
|0--2--4--2---12-6--4--4-4-4--4--4-4| 
|0--0--0--0---0--0--0--0-0-0--0--0-0| 

"Look.."         
|0---0-0-0--0----0---0-0-0--0| 
|0---0-0-0--2----0---0-0-0--2| 
|1---2-2-1--2----1---2-2-1--2| 
|2---2-2-2--2----2---2-2-2--2| 
|2---2-2-2--0----2---2-2-2--0| 
|0---0-0-0--0----0---0-0-0--0| 

"You.."          "All.."         "don't know..." 
|0---0---0---0---0---0---0---0---0---0---0---0| 
|0---0---0---0---0---0---0---0---3---3---3---3| 
|2---4---2---4---5---4---5---4---0---0---0---0| 
|4---6---4---6---5---4---5---4---4---2---4---2| 
|4---6---4---6---0---0---0---0---2---2---2---2| 
|0---0---0---0---0---0---0---0---0---0---0---0| 

"Look.." 
|0---0-0-0--0----0---0-0-0--0| 
|0---0-0-0--2----0---0-0-0--2| 
|1---2-2-1--2----1---2-2-1--2| 
|2---2-2-2--2----2---2-2-2--2| 
|2---2-2-2--0----2---2-2-2--0| 
|0---0-0-0--0----0---0-0-0--0| 

"Home..""Come..""All.."         "don't know.." 
|0---0---0---0---0---0---0---0---0---0-3-2-0---------0--0------0-5-7| 
|0---0---0---0---0---0---0---0---3---3--------3-1-0--3--3-----0-----| 
|2---4---2---4---5---4---5---4---0---0-------------2-0--0----2------| 
|4---6---4---6---5---4---5---4---4---2---------------4--2---2-------| 
|4---6---4---6---0---0---0---0---2---2---------------2--2--2--------| 
|0---0---0---0---0---0---0---0---0---0---------------0--0-----------| 

Strum the slide 
"I sit.."    "Watching.." 
|0-0-0/0/0-0--0-0/0/0/0| 
|0-0-0/0/0-0--0-0/0/0/0| 
|1-1-1/2/4-4--2-2/4/6/4| X2 
|2-2-2/4/6-6--4-4/6/7/6| 
|2-2-2/4/6-6--4-4/6/7/6| 
|0-0-0/0/0-0--0-0/0/0/0| 

"I think.""Peace.."  "Only.." 
|0-0-0/0/0-4--0--4--0--0/0/0-0/0-0-0| 
|0-0-0/0/0-5--4--5--0--0/0/0-0/0-0-0| 
|1-1-1/2/4-6--4--6--4--1/2/4-4/2-2-2| 
|2-2-2/4/6-7--4--6--6--2/4/6-6/4-4-4| 
|2-2-2/4/6-0--0--0--6--2/4/6-6/4-3-2| 
|0-0-0/0/0-0--0--0--0--0/0/0-0/0-0-0| 

|0---0-0-0--0----0---0-0-0--0| 
|0---0-0-0--2----0---0-0-0--2| 
|1---2-2-1--2----1---2-2-1--2| 
|2---2-2-2--2----2---2-2-2--2| 
|2---2-2-2--0----2---2-2-2--0| 
|0---0-0-0--0----0---0-0-0--0| 
"You.." "Ah.." "Time.." "And.." "And..""Seems" 
|0---0---0---0---5---4---5---4-(2)-0--0--0----0-2| 
|0---0---0---0---0---5---0---5--4--0--0--5----0-0| 
|2---4---2---4---4---6---4---6--4--4--4--6----0-0| 
|4---6---4---6---0---6---0---6--4--6--6--6----2-2| 
|4---6---4---6---2---0---2---0--0--6--5--4----3-3| 
|0---0---0---0---0---0---0---0--0--0--0--0----0-0| 

|0---0--0-0-0---0--0-0-0--0-3-2-0-------0-0-----0-5/7| 
|0---0--0-0-0---0--0-0-3--3------3-1-0--3-3----0-----| 
|5---4--4-4-5---4--4-4-0--0-----------2-0-0---2------| 
|5---4--2-4-5---4--2-0-4--2-------------4-2--2-------| 
|0---0--0-0-0---0--0-0-2--2-------------2-2-2--------| 
|0---0--0-0-0---0--0-0-0--0-------------0-0----------| 

Strum the slide 
"I sit.."    "Watching.." 
|0-0-0/0/0-0--0-0/0/0/0| 
|0-0-0/0/0-0--0-0/0/0/0| 
|1-1-1/2/4-4--2-2/4/6/4| X2 
|2-2-2/4/6-6--4-4/6/7/6| 
|2-2-2/4/6-6--4-4/6/7/6| 
|0-0-0/0/0-0--0-0/0/0/0| 

"I think..""Peace.."  "Only.." 
|0-0-0/0/0-4--0--4--0--0/0/0-0/0-0\0--0--0| 
|0-0-0/0/0-5--4--5--0--0/0/0-0/0-0\0--0--0| 
|1-1-1/2/4-6--4--6--4--1/2/4-4/2-2\1--2--2| 
|2-2-2/4/6-7--4--6--6--2/4/6-6/4-4\2--4--4| 
|2-2-2/4/6-0--0--0--6--2/4/6-6/4-4\2--3--2| 
|0-0-0/0/0-0--0--0--0--0/0/0-0/0-0\0--0--0| 

|-----0-------0-------0---0--0---| 
|----0-0-----0-0-----0-0---0--0--| 
|---3---3---3---3---3---3---3--3-| fade out 
|--4-----4-4-----4-4-----4-------| 
|-4-------3-------2--------------| 
|(0)-----(0)-----(0)-------------| 
		  

See also:

tabs The Beatles - Drive My Car tabs The Smiths - Heaven Knows I'm Miserable Now tabs Eric Clapton - Hey, Hey tabs Coldplay - Yellow tabs Queen - We will rock you tabs Dire Straits - Sultans of swing (completa)
e-chords

Other versions:

tabs Anthony Phillips - Which Way The Wind Blows
auto scroll beats size up size down change color hide chords drawings
tab show chords e-chords YouTube Clip e-chords hide all tabs e-chords go to top tab

share