Antemasque

home > Antemasque

50000 Killowatts Tab

Antemasque

Difficulty: nolevelnolevel

by terr%5Fschmitz

tuner correct add songbook print version text version save to e-mail
chordsukulelecavacokeyboardtabbassdrumsharmonicsflute Guitar Pro
chords

50000 Killowatts

  		Intro: 

Gtr.1 

e|------------------------------------------5------------------| 
B|-----------------------------7-77777777---5----------------7-| 
G|-4444-66---4-66666666-4444-6-7-77777777-4-6-666666-44444-6-7-| 
D|-5555-77---5-77777777-5555-7-7-77777777-5-7-777777-55555-7-7-| 
A|-5555-77---5-77777777-5555-7-5-55555555-5-7-777777-55555-7-5-| 
E|-3333-55---3-55555555-3333-5------------3-5-555555-33333-5---| 


Verse: 

Gtr.1 

|--5----5---5----5---5------5--7------------------------------------| 
|-----7--------7-----------------------------------------7777777777-| 
|----------------------------------4-4-44-4-4-6-6-66-6-6-7777777777-| 
|----------------------------------5-5-55-5-5-7-7-77-7-7-7777777777-| 
|----------------------------------5-5-55-5-5-7-7-77-7-7-5555555555-| 
|----------------------------------3-3-33-3-3-5-5-55-5-5------------| 

|--5----5---5----5---5---7---5--------------------------------------| 
|-----7--------7---------------8-------------------------7777777777-| 
|----------------------------------4-4-44-4-4-6-6-66-6-6-7777777777-| 
|----------------------------------5-5-55-5-5-7-7-77-7-7-7777777777-| 
|----------------------------------5-5-55-5-5-7-7-77-7-7-5555555555-| 
|----------------------------------3-3-33-3-3-5-5-55-5-5------------| 


Chorus: 

Gtr.1 

|-----------------------------------------------------------| 
|-----------------------------------------------------------| 
|-----------------------------------------------------------| 
|-----------------------------------------------------------| 
|-----------------------------------------------------------| 
|-0~----5~----10~----3~--2~----0~----5~----10~--------------| 

|------------------------------------------------------| 
|----------------------------------------------------7-| 
|----------------------------4444-66-4-66666666666-4-7-| 
|----------------------------5555-77-5-77777777777-5-7-| 
|----------------------------5555-77-5-77777777777-5-5-| 
|-0~----5~----7-7--5-5-4~----3333-55-3-55555555555-3---| 

Gtr.2 

|--------------5--5------------7--7----------5--5--5--5--5--| 
|--------5--5---7--7--3--3------8--8--5--5----7--7--7--7--7-| 
|---------6--6---7--7--4--4------7--7--6--6----7--7--7--7---| 
|-------7--7--7---------5--5------------7--7----------------| 
|-----------------------------------------------------------| 
|-----------------------------------------------------------| 

|-7--7-------------------------------------------------| 
|--8--8--5--5---7--------------------------------------| 
|---7--7--6--6---7-------------------------------------| 
|----------7--7---9------------------------------------| 
|------------------------------------------------------| 
|------------------------------------------------------| 


Verse again: 

Gtr.1 

|--5----5---5----5---5---7---5--------------------------------------| 
|-----7--------7---------------8-------------------------7777777777-| 
|----------------------------------4-4-44-4-4-6-6-66-6-6-7777777777-| 
|----------------------------------5-5-55-5-5-7-7-77-7-7-7777777777-| 
|----------------------------------5-5-55-5-5-7-7-77-7-7-5555555555-| 
|----------------------------------3-3-33-3-3-5-5-55-5-5------------| 


Chorus again: 

Gtr.1 

|-----------------------------------------------------------| 
|-----------------------------------------------------------| 
|-----------------------------------------------------------| 
|-----------------------------------------------------------| 
|-----------------------------------------------------------| 
|-0~----5~----10~----3~--2~----0~----5~----10~--------------| 

|------------------------------------| 
|------------------------------------| 
|----------------------------4444-66-| 
|----------------------------5555-77-| 
|----------------------------5555-77-| 
|-0~----5~----7-7--5-5-4~----3333-55-| 

Gtr.2 

|--------------5--5------------7--7----------5--5--5--5--5--| 
|--------5--5---7--7--3--3------8--8--5--5----7--7--7--7--7-| 
|---------6--6---7--7--4--4------7--7--6--6----7--7--7--7---| 
|-------7--7--7---------5--5------------7--7----------------| 
|-----------------------------------------------------------| 
|-----------------------------------------------------------| 

|-7--7-------------------------------| 
|--8--8--5--5---7--------------------| 
|---7--7--6--6---7-------------------| 
|----------7--7---9------------------| 
|------------------------------------| 
|------------------------------------| 


Bridge: 

Gtr.1 

|--------------------------------| 
|--------------------------------| 
|-3----5--------7777777777777777-|x3 
|-3-33-5-55-5-5-7777777777777777-| 
|-1-33-3-55-5-5-5555555555555555-| 
|---11---33-3-3------------------| 

|--------------------------------------------------------------------------| 
|--------------------------------------------------------------------------| 
|-3----5--------6-66-6-6-66-6-6-66-6-6-66-6-7-77-7-6-66-6------------------| 
|-3-33-5-55-5-5-7-77-7-7-77-7-7-77-7-7-77-7-9-99-9-7-77-7-6666666666666666-| 
|-1-33-3-55-5-5-7-77-7-7-77-7-7-77-7-7-77-7-9-99-9-7-77-7-7777777777777777-| 
|---11---33-3-3-5-55-5-5-55-5-6-66-6-6-66-6-7-77-7-5-55-5-4444444444444444-| 


Chorus again: 


Gtr.1 

|-----------------------------------------------------------| 
|-----------------------------------------------------------| 
|-----------------------------------------------------------| 
|-----------------------------------------------------------| 
|-----------------------------------------------------------| 
|-0~----5~----10~----3~--2~----0~----5~----10~--------------| 

|-----------------------------------------------------| 
|--------------------------------------------------7~-| 
|----------------------------4444-66-4-66666666666-7~-| 
|----------------------------5555-77-5-77777777777-7~-| 
|----------------------------5555-77-5-77777777777-5~-| 
|-0~----5~----7-7--5-5-4~----3333-55-3-55555555555----| 

Gtr.2 

|--------------5--5------------7--7----------5--5--5--5--5--| 
|--------5--5---7--7--3--3------8--8--5--5----7--7--7--7--7-| 
|---------6--6---7--7--4--4------7--7--6--6----7--7--7--7---| 
|-------7--7--7---------5--5------------7--7----------------| 
|-----------------------------------------------------------| 
|-----------------------------------------------------------| 

|-7--7-------------------------------------------------| 
|--8--8--5--5---7--------------------------------------| 
|---7--7--6--6---7-------------------------------------| 
|----------7--7---9------------------------------------| 
|------------------------------------------------------| 
|------------------------------------------------------| 

End. 
	  

Search Paypal
auto scroll beats size up size down change color hide chords drawings
tab show chords e-chords YouTube Clip e-chords hide all tabs e-chords go to top tab