Anouk

Urban Solitude

Anouk

tabs

by  GROLLUB

save to print version add songbook text version e-mail correct tuner
chordsukulelecavacokeyboardtabbassdrumsharmonicaflute Guitar Pro
close

there isn't a video lesson for this song

chords

Urban Solitude

Year: 1999 - Album: Urban Solitude

	  		Riff1 
e-12~~~~~~~~~~~~~~~~~~~~~~--- 
Riff2 
e-13---12--10--12---13-13------ 
B------------------------------ 
  Dm                C 
e-13---12--10--12-10----------- 
B--------------------10-------- 
  Bb                C 
e-13---12--10--12---13-13-13-13 
B------------------------------ 
  Dm                C 
e-13---12--10--12-13/17-15-12~~ 
B------------------------------ 
  Bb              C         Dm 
 
Dm   C   Bb   C 
Dm   C   Bb   C   Dm 
Dm 
I've got a bug in my head  
        Bb                 C 
And a      jumping heart       No time to spare 
Dm (pick) riff 
e-----1-0--- 
B----------- 
G---2------- 
D-0--------- 
A----------- 
E----------- 
Dm (pick) 
Turn left turn right step on it  
Bb                           C 
Stopped by the traffic light  
  
             Dm 
And all that honking screaming  The cabdriver is dreaming  
       Bb               C 
Of the beach and babes    leaning back easy 
Dm (pick) 
as the sun goes down     But I'm already late  
Bb             C 
                     oooooooohh 
Riff3a 
G---------------------------------------------------------------------- 
D-0-0---0-0---0-0---0-0---0-0---3---8---8-8---8-8---10-10---10-10--7-7- 
A-0-0---0-0---0-0---0-0---0-0---3---8---8-8---8-8---10-10---10-10--7-7- 
D-0-0---0-0---0-0---0-0---0-0---3---8---8-8---8-8---10-10---10-10--7-7- 
  D5                            F5  Bb5             C5             A5 
Riff3b 
G--------------------------------------------------------------------------- 
D-0-0---0-0---0-0---0-0---0-0---3---8---8-8---8-8---10-10-10-10-10-10-10-10- 
A-0-0---0-0---0-0---0-0---0-0---3---8---8-8---8-8---10-10-10-10-10-10-10-10- 
D-0-0---0-0---0-0---0-0---0-0---3---8---8-8---8-8---10-10-10-10-10-10-10-10- 
  D5                            F5  Bb5             C5 
{Pre-Chorus} 
D5                                           F5 
No time to spare, couldn't care less about it 
Bb5                          C5    A5  
If the sky was falling___   down  
D5                                      F5    Bb5 
No I don't care you can stare while the whole world is crumbling 
C5   / / / / 
around me 
{Chorus} 
         D5                 C5                  Bb5        C5 
Urban so_litude breaking me down       Keeps me dreaming  
          D5                C5                  Bb5        C5 
Urban so__litude shaking me down__     Keeps me dreaming  yeah yeah oh 
Riff4 
e-6-6-5--5-5--5------5--5-5--5- 
B-5-5-5--5-5--5--6-6-5--5-5--5- 
G-7-7-7--7-7--7--7-7-x--x-x--x- 
D-7-7-7--7-7--7--8-8-8--8-8--8- 
A----------------8-8-8--8-8--8- 
E------------------------------ 
Dsus2* Dsus2     Bb  A/A# 
 
Dsus2* Dsus2     Bb  A/A#         
            C'mon 
Dsus2* Dsus2     Bb  A/A# 
Dm 
  So you've got a lot of stuff on your mind 
     Bb                     C 
Or a          bleeding heart      when no_body cares_ 
Dm 
Step in, step out of the rain__ 
Bb                                   C 
Head for the flickering lights, just head for the flickering lights  
               Dm 
There's always somebody dancing baby, taking a chance  
               Bb              C 
You can find a little romance, someone will give you love  
              Dm 
Although it's just enough           to get you through the night  
Bb                C 
                  alright now 
{Pre-Chorus} 
D5                                               F5 
No_ I don't care  you can stare  I don't care about it  
Bb5                             C5                  A5  
No__ I don't care  you can stare  I_ don't care about it  
D5                                      F5        Bb5  {no chord} 
No I don't care you can stare____ while the whole world is crumbling around me 
{Chorus} 
          D5                 C5                  Bb5                 C5 
 Urban so_litude breaking me down       Keeps me dreaming  
          D5                C5                  Bb5                 C5 
Urban so__litude shaking us down__     Keeps me dreaming 
         D5                 C5                  Bb5                 C5 
Urban so_litude breaking me down       Keeps me dreaming, dreaming, dreaming 
          D5                C5                  Bb5                 C5 
Urban so__litude shaking me down down down      down down down down down 
Riff5 
D-0-0-0-0-0-0-0-0-2-2-2-2-2-2-2-2-3-3-3-3-3-3-3-3-5-5-5-5-5-5-5-5- 
A-0-0-0-0-0-0-0-0-2-2-2-2-2-2-2-2-3-3-3-3-3-3-3-3-5-5-5-5-5-5-5-5- 
D-0-0-0-0-0-0-0-0-2-2-2-2-2-2-2-2-3-3-3-3-3-3-3-3-5-5-5-5-5-5-5-5- 
  D5              E5              F5              G5 
         D5                 E5                  F5                 G5 
Urban so_litude breaking me down____   Keeps me dreaming yeahyeahyeah yeah yeah 
          D5                E5                  F5                 G5 
Urban so__litude shaking me down down down      down down down down down 
Riff6 Cello Outro (Fade out) 
D-0-----0-----0-----0-----0- 
A-0-----0-----0-----0-----0- 
D-0-----0-----0-----0-----0- 
  D5 
       D5 
Urban_ solitude_____ yeah yeah yeah_ yeah 
 

		  

Full key step upFull key step up
Half key step upHalf key step up
Half key step downHalf key step down
Full key step downFull key step down
hide glossary

See also:

tabs Loona - Vivid tabs Anouk - Stop thinking tabs Anouk - It Wasn`t Me tabs Anouk - Urban Solitude tabs Laura Jansen - Wicked World tabs Anouk - It`s So Hard
e-chords

Other versions:

tabs Anouk - Urban Solitude
auto scroll beats size up size down change color hide chords drawings
tab show chords e-chords YouTube Clip e-chords hide all tabs e-chords go to top tab

share