Anna Calvi

The Devil (intro)

Anna Calvi

tabs

by  IRONPOWER4EVER

save to print version add songbook text version e-mail correct tuner
chordsukulelecavacokeyboardtabbassdrumsharmonicaflute Guitar Pro
close

there isn't a video lesson for this song

chords

The Devil (intro)

	  		

eb|---------------------------------------------------------------------------| 
Bb|---------------------------------------------------------------------------| 
Gb|-5--5--4-2-----0--2-h4-h5-s7--0-0-------5--7--9--7-------------------------| 
Db|-5--5----4-----0---------------------5--5-----7----7-----------------------| 
Ab|-7--5----5-----2------------------------7-----9----------------------------| 
Eb|---------------------------------------------------------------------------| 

eb|-----------------------------------0-0-0-0-0-0-0-0-0-0-0-------------------| 
Bb|-----------------------------------0-0-0-0-0-0-0-0-0-0-0-------------------| 
Gb|-2---2-4-4b~~~~~-4-2h4p2p0---------0-0-0-0-0-0-0-0-0-0-0-------------------| 
Db|-3------------------------4p2p0----2-4-5-4-2-4-4-4-4-4-4-------------------| 
Ab|-5----------0------------------3p2-3-3-3-3-3-3-3-3-3-3-3-------------------| 
Eb|----------------------------------------------------------2b-(slow bend)---| 
					Lots of strumming  
		  

auto scroll beats size up size down change color hide chords drawings
tab show chords e-chords YouTube Clip e-chords hide all tabs e-chords go to top tab

share