Anna Calvi

I'll Be Your Man

Anna Calvi

tabs

by  SABRJOAO

save to print version add songbook text version e-mail correct tuner
chordsukulelecavacokeyboardtabbassdrumsharmonicaflute Guitar Pro
close

there isn't a video lesson for this song

chords

I'll Be Your Man

	  		

Intro 
0:00                          rake                        rake 
eb|----------------7----------7-10-7----------------------7-------------------| 
Bb|--------------------------x------9-7------------------x--10----------------| 
Gb|9b11-9b11-9-7----7-9b11--x-----------9-7-6--6-6-6----x------6-6-6-6--------| 
Db|--------------9----------------------------------8b9----------------8b9-8b9| 
Ab|---------------------------------------------------------------------------| 
Eb|---------------------------------------------------------------------------| 

0:28                                      rake                            rake 
eb|----------------7------10----10----10--7-10-7--------------------------7---| 
Bb|------6-7-6-7-6---6b7----7-7---7-7----x------9-7----------------------x--10| 
Gb|6-7-9--------------------------------x----------9-7-6--6-6-6---------x-----| 
Db|------------------------------------------------------------8b9-8b9--------| 
Ab|---------------------------------------------------------------------------| 
Eb|---------------------------------------------------------------------------| 

0:44 
eb|---------------------------------------------------------------------------| 
Bb|---------------------------------------------------------------------------| 
Gb|6-6-6-6--------------------------------------------------------------------| 
Db|--------8b9-8b9------------------------------------------------------------| 
Ab|---------------------------------------------------------------------------| 
Eb|---------------------------------------------------------------------------| 


First verse 
0:50 
eb|--------------------------------------------------7------------------------| 
Bb|----------------------------------------------7-----7----------------------| 
Gb|------------------------------------------------9-----9--------------------| 
Db|---------------------------------------------------------------------------| 
Ab|---------------------------------------------------------------------------| 
Eb|---------------------------------------------------------------------------| 
The birds can't lie with my collar in my teeth 

0:57 
eb|----------------------------------------7----------------------------------| 
Bb|------------------------------------7-----7--------------------------------| 
Gb|--------------------------------------9-----9------------------------------| 
Db|---------------------------------------------------------------------------| 
Ab|---------------------------------------------------------------------------| 
Eb|---------------------------------------------------------------------------| 
No one knows you like no one knows me 

1:05 
eb|-5------8-----8---------------7--------------------------------------------| 
Bb|-7------8-----8---------------8--------------------------------------------| 
Gb|-7------9-----9---------------9--------------------------------------------| 
Db|-7------10----10--------------9--------------------------------------------| 
Ab|-5------10----10--------------7--------------------------------------------| 
Eb|-5------8-----8---------------7--------------------------------------------| 
Wait for a day, you will never, never know the way 

1:12 
eb|-3-------------------------------------------------------------------------| 
Bb|-3-------------------------------------------------------------------------| 
Gb|-4-------------------------------------------------------------------------| 
Db|-5-------------------------------------------------------------------------| 
Ab|-5-------------------------------------------------------------------------| 
Eb|-3-------------------------------------------------------------------------| 
How it feels 

Chorus 
1:15 
eb|-3-3-3-3--3--3---7--7--7-7-------------------------------------------------| 
Bb|-3-3-3-3--3--3---7--7--7-7-------------------------------------------------| 
Gb|-4-4-4-4--4--4---7--7--7-7-------------------------------------------------| 
Db|-5-5-5-5--5--5---9--9--9-9-------------------------------------------------| 
Ab|-5-5-5-5--5--5---9--9--9-9-------------------------------------------------| 
Eb|-3-3-3-3--3--3---7--7--7-7-------------------------------------------------| 
I'll be your man 

eb|-3-3-3-3--3--3---7--7--7-7-------------------------------------------------| 
Bb|-3-3-3-3--3--3---7--7--7-7-------------------------------------------------| 
Gb|-4-4-4-4--4--4---7--7--7-7-------------------------------------------------| 
Db|-5-5-5-5--5--5---9--9--9-9-------------------------------------------------| 
Ab|-5-5-5-5--5--5---9--9--9-9-------------------------------------------------| 
Eb|-3-3-3-3--3--3---7--7--7-7-------------------------------------------------| 
I'll be your man 

eb|-3-3-3-3--3--3---7---------------------------------------------------------| 
Bb|-3-3-3-3--3--3---7---------------------------------------------------------| 
Gb|-4-4-4-4--4--4---7---------------------------------------------------------| 
Db|-5-5-5-5--5--5---9---------------------------------------------------------| 
Ab|-5-5-5-5--5--5---9---------------------------------------------------------| 
Eb|-3-3-3-3--3--3---7---------------------------------------------------------| 
I'll be your man 

eb|-3--------7----------------------------------------------------------------| 
Bb|-3--------7----------------------------------------------------------------| 
Gb|-4--------7----------------------------------------------------------------| 
Db|-5--------9----------------------------------------------------------------| 
Ab|-5--------9----------------------------------------------------------------| 
Eb|-3--------7----------------------------------------------------------------| 
I'll be your man 

Second verse 
1:31 
eb|--------------------------------------------------------------7------------| 
Bb|------------------------------------------------------7--------------------| 
Gb|------------------------------------------7-7-7-9-7-9---9-7----------------| 
Db|------------------------------------------------------------9--------------| 
Ab|---------------------------------------------------------------------------| 
Eb|---------------------------------------------------------------------------| 
Walking hand in hand by the side of the road 

1:38 
eb|---------------------------------------------------------------------------| 
Bb|---------------------------------------------------------------------------| 
Gb|----------------------------------9--9-9-9-9--9-9-9-9-9b11-----------------| 
Db|---------------------------------------------------------------------------| 
Ab|---------------------------------------------------------------------------| 
Eb|---------------------------------------------------------------------------| 
Heaven knows what we could have been 

1:45 
eb|-5------8-----8---------------7--------------------------------------------| 
Bb|-7------8-----8---------------8--------------------------------------------| 
Gb|-7------9-----9---------------9--------------------------------------------| 
Db|-7------10----10--------------9--------------------------------------------| 
Ab|-5------10----10--------------7--------------------------------------------| 
Eb|-5------8-----8---------------7--------------------------------------------| 
But somehow we wait and a little bit falls away 

1:52 
eb|-3-------------------------------------------------------------------------| 
Bb|-3-------------------------------------------------------------------------| 
Gb|-4-------------------------------------------------------------------------| 
Db|-5-------------------------------------------------------------------------| 
Ab|-5-------------------------------------------------------------------------| 
Eb|-3-------------------------------------------------------------------------| 
Do you feel? 


Chorus 
1:55 
eb|-3-3-3-3--3--3---7--7--7-7-------------------------------------------------| 
Bb|-3-3-3-3--3--3---7--7--7-7-------------------------------------------------| 
Gb|-4-4-4-4--4--4---7--7--7-7-------------------------------------------------| 
Db|-5-5-5-5--5--5---9--9--9-9-------------------------------------------------| 
Ab|-5-5-5-5--5--5---9--9--9-9-------------------------------------------------| 
Eb|-3-3-3-3--3--3---7--7--7-7-------------------------------------------------| 
I'll be your man 

eb|-3-3-3-3--3--3---7--7--7-7-------------------------------------------------| 
Bb|-3-3-3-3--3--3---7--7--7-7-------------------------------------------------| 
Gb|-4-4-4-4--4--4---7--7--7-7-------------------------------------------------| 
Db|-5-5-5-5--5--5---9--9--9-9-------------------------------------------------| 
Ab|-5-5-5-5--5--5---9--9--9-9-------------------------------------------------| 
Eb|-3-3-3-3--3--3---7--7--7-7-------------------------------------------------| 
I'll be your man 

eb|-3-3-3-3--3--3---7---------------------------------------------------------| 
Bb|-3-3-3-3--3--3---7---------------------------------------------------------| 
Gb|-4-4-4-4--4--4---7---------------------------------------------------------| 
Db|-5-5-5-5--5--5---9---------------------------------------------------------| 
Ab|-5-5-5-5--5--5---9---------------------------------------------------------| 
Eb|-3-3-3-3--3--3---7---------------------------------------------------------| 
I'll be your man 

eb|-3--------7----------------------------------------------------------------| 
Bb|-3--------7----------------------------------------------------------------| 
Gb|-4--------7----------------------------------------------------------------| 
Db|-5--------9----------------------------------------------------------------| 
Ab|-5--------9----------------------------------------------------------------| 
Eb|-3--------7----------------------------------------------------------------| 
I'll be your man 

2:11 
eb|-7-7---7-7---7-7---7-7-----------------------------------------------------| 
Bb|-7-7---7-7---7-7---7-7-----------------------------------------------------| 
Gb|-7-7---7-7---7-7---7-7-----------------------------------------------------| 
Db|-9-9---9-9---9-9---9-9-----------------------------------------------------| 
Ab|-9-9---9-9---9-9---9-9-----------------------------------------------------| 
Eb|-7-7---7-7---7-7---7-7-----------------------------------------------------| 
In the day, I can be your lover 

2:18 
eb|-7-7---7-7---7-7---7-7-----------------------------------------------------| 
Bb|-7-7---7-7---7-7---7-7-----------------------------------------------------| 
Gb|-7-7---7-7---7-7---7-7-----------------------------------------------------| 
Db|-9-9---9-9---9-9---9-9-----------------------------------------------------| 
Ab|-9-9---9-9---9-9---9-9-----------------------------------------------------| 
Eb|-7-7---7-7---7-7---7-7-----------------------------------------------------| 
In the night, these words are true 

2:25 
eb|-7-7---7-7---7-7---7-7-----------------------------------------------------| 
Bb|-7-7---7-7---7-7---7-7-----------------------------------------------------| 
Gb|-7-7---7-7---7-7---7-7-----------------------------------------------------| 
Db|-9-9---9-9---9-9---9-9-----------------------------------------------------| 
Ab|-9-9---9-9---9-9---9-9-----------------------------------------------------| 
Eb|-7-7---7-7---7-7---7-7-----------------------------------------------------| 
And we wait, wait forever 

2:32 
eb|-7-7---7-7---7-7-----------------------------------------------------------| 
Bb|-7-7---7-7---7-7-----------------------------------------------------------| 
Gb|-7-7---7-7---7-7-----------------------------------------------------------| 
Db|-9-9---9-9---9-9-----------------------------------------------------------| 
Ab|-9-9---9-9---9-9-----------------------------------------------------------| 
Eb|-7-7---7-7---7-7-----------------------------------------------------------| 
For night, I can find 

2:36 
eb|-5------8--------8---------------7-----------------------------------------| 
Bb|-7------8--------8---------------8-----------------------------------------| 
Gb|-7------9--------9---------------9-----------------------------------------| 
Db|-7------10-------10--------------9-----------------------------------------| 
Ab|-5------10-------10--------------7-----------------------------------------| 
Eb|-5------8--------8---------------7-----------------------------------------| 
Why don't you wait, won't you tell me what it is 

eb|-3-------------------------------------------------------------------------| 
Bb|-3-------------------------------------------------------------------------| 
Gb|-4-------------------------------------------------------------------------| 
Db|-5-------------------------------------------------------------------------| 
Ab|-5-------------------------------------------------------------------------| 
Eb|-3-------------------------------------------------------------------------| 
Do you feel? 

Chorus 
2:46 
eb|-3-3-3-3--3--3---7--7--7-7-------------------------------------------------| 
Bb|-3-3-3-3--3--3---7--7--7-7-------------------------------------------------| 
Gb|-4-4-4-4--4--4---7--7--7-7-------------------------------------------------| 
Db|-5-5-5-5--5--5---9--9--9-9-------------------------------------------------| 
Ab|-5-5-5-5--5--5---9--9--9-9-------------------------------------------------| 
Eb|-3-3-3-3--3--3---7--7--7-7-------------------------------------------------| 
I'll be your man 

eb|-3-3-3-3--3--3---7--7--7-7-------------------------------------------------| 
Bb|-3-3-3-3--3--3---7--7--7-7-------------------------------------------------| 
Gb|-4-4-4-4--4--4---7--7--7-7-------------------------------------------------| 
Db|-5-5-5-5--5--5---9--9--9-9-------------------------------------------------| 
Ab|-5-5-5-5--5--5---9--9--9-9-------------------------------------------------| 
Eb|-3-3-3-3--3--3---7--7--7-7-------------------------------------------------| 
I'll be your man 

eb|-3-3-3-3--3--3---7---------------------------------------------------------| 
Bb|-3-3-3-3--3--3---7---------------------------------------------------------| 
Gb|-4-4-4-4--4--4---7---------------------------------------------------------| 
Db|-5-5-5-5--5--5---9---------------------------------------------------------| 
Ab|-5-5-5-5--5--5---9---------------------------------------------------------| 
Eb|-3-3-3-3--3--3---7---------------------------------------------------------| 
I'll be your man 

eb|-3--------7----------------------------------------------------------------| 
Bb|-3--------7----------------------------------------------------------------| 
Gb|-4--------7----------------------------------------------------------------| 
Db|-5--------9----------------------------------------------------------------| 
Ab|-5--------9----------------------------------------------------------------| 
Eb|-3--------7----------------------------------------------------------------| 
I'll be your man 

3:00                            rake 
eb|-----------------------------7-10-7----------------------------------------| 
Bb|----------------------------x-------9-7------------------------------------| 
Gb|-9b10-9b10-9b10-9b10-9b10--x------------9-7--------------------------------| 
Db|--------------------------------------------9-7-9--------------------------| 
Ab|---------------------------------------------------------------------------| 
Eb|---------------------------------------------------------------------------| 
		  

auto scroll beats size up size down change color hide chords drawings
tab show chords e-chords YouTube Clip e-chords hide all tabs e-chords go to top tab

share