A.n.i.m.a.l.

Gracias Doy

A.n.i.m.a.l.

tabs

save to print version add songbook text version e-mail correct tuner
chordsukulelecavacokeyboardtabbassdrumsharmonicaflute Guitar Pro
close

there isn't a video lesson for this song

chords

Gracias Doy

Written by Julián Andrés Gámez Marín

	  		Que rollo esta es una de las mejores rolas que escuchado, siempre hay que agradeser 
a alguien . Bueno saludos al crew-jiente y todo la raza que me conoce. 


INTRO Y VERSO : 
G|-------2-----------| 
D|-----2-------------| 
A|--0----0--1--3--1--| 
D|-------------------| 
A|-------------------| 

CUNADO LA GTR TIENE DISTORCION 

G|--------------------------| 
D|--------------------------| 
A|--0--0--1-1-XX--3-3-------| 
D|--------------------------| 
A|--------------------------| 

INTER 

G|-----------------------| 
D|-----------------------| 
A|-----------------------| 
D|-----------------------| 
A|--0-0--1-1-XX--3--3----| 

PRE-OUTRO 

G|-------------------| 
D|-------------------| 
A|------0------------| 
D|----0--------------| 
A|-0-----0--1--3-----| 

OUTRO: 

G|--2--3--5----------| 
D|-------------------| 
A|-------------------| 
D|-------------------| 
A|-------------------| 

G|--2--3--5----------| 
D|-------------------| 
A|--------------0----| 
D|-------------------| 
A|-------------------|
		  

auto scroll beats size up size down change color hide chords drawings
tab show chords e-chords YouTube Clip e-chords hide all tabs e-chords go to top tab