Andy Timmons

September

Andy Timmons

tabs Expert expert

by  TARIKIKE

save to print version add songbook text version e-mail correct tuner
chordsukulelecavacokeyboardtabbassdrumsharmonicaflute Guitar Pro
close

there isn't a video lesson for this song

chords

September

(Andy Timmons)

	  		
e|--------------------------------------------------------------------------| 
B|--------------------------------------------------------------------------| 
G|-------------4-4---4-2-1-1-----------------4-4---4-------1----1-----------| 
D|-----2-2-4-4---------------4------2-2-4-4----------2-2h4---4----4p2-1-2---| 
A|-2-2-------------2------------2-2--------------2--------------------------| 
E|--------------------------------------------------------------------------| 

e|--------------------------------------------------------------------------| 
B|------------------------------------------------------/7-7----------------| 
G|-------1-1----------------------/6-6--------6-6h7-7/9---------------------| 
D|-2-2h4------------4-6-6h7-7-7/9-----------9----------------9-9p7-9--9-9/11| 
A|-----------4----4--------------------9--9---------------------------------| 
E|--------------5-----------------------------------------------------------| 

e|--------------------------------------------------------------------------| 
B|--------------------------------------------------------------------------| 
G|----------9-8-6-------------4-4---4-2-1-----1----------------4-4---4-2-1--| 
D|-11h12-11-------9\----2-4-4-------------2-4---4------2-2-4-4--------------| 
A|--------------------2-----------2----------------2-2-------------2--------| 
E|--------------------------------------------------------------------------| 

e|--------------------------------------------------------------------------| 
B|---------------------------------------------------------------------7-7--| 
G|-----1--------------1-1----------------------/6-6/7/9\6--6-6h7-7-7/9------| 
D|-2-4---4--1-2-2-2h4------------4-6-6h7-7-7/9------------------------------| 
A|------------------------4----4--------------------------------------------| 
E|---------------------------5----------------------------------------------| 

e|--------------------------------------------------------------------------| 
B|--------------------------------------------12-12---12-10-9------9--------| 
G|-------------------------9-8-6------9-11-11-----------------9-11---11-----| 
D|-9-9p7-9-9-9-11-11h12-11-------9--9---------------9-----------------------| 
A|--------------------------------------------------------------------------| 
E|--------------------------------------------------------------------------| 

e|-----------------------------------------------------12-14-14h15-14-12-10-| 
B|---------------12-12---12-10-9-9h10p9----------10/12----------------------| 
G|-----9-9-11-11------------------------11-9h11-----------------------------| 
D|-9-9-----------------9----------------------------------------------------| 
A|--------------------------------------------------------------------------| 
E|--------------------------------------------------------------------------| 

e|-------12-12-------------------------------------------12-14-14b15-14-12--| 
B|-10h12--------10p9-9b10r9-pb10r9-10p9------------10/12--------------------| 
G|--------------------------------------9-----------------------------------| 
D|----------------------------------------9---------------------------------| 
A|------------------------------------------12-11---------------------------| 
E|--------------------------------------------------------------------------| 

e|-10-------12-12/14-14p12-14--14-12-11-9-----------------------------------| 
B|----10h12-------------------------------12--10-9------9--------------9-10-| 
G|-------------------------------------------------9h11---11------9-11------| 
D|------------------------------------------------------------/11-----------| 
A|--------------------------------------------------------------------------| 
E|--------------------------------------------------------------------------| 

e|--------------------------------------------------12p11-------------------| 
B|------------------------------------------9h10-12-------12-12h14-12-------| 
G|-/13-9-9-----------------9/11--------9-11---------------------------9-----| 
D|----------/11----9--7-9-------9-9/11--------------------------------------| 
A|--------------11----------------------------------------------------------| 
E|--------------------------------------------------------------------------| 

e|--------------------------------------------------------------------------| 
B|-----------9-10-9h10p9----------12-10-9-----------------------------------| 
G|------9-11-------------11-9h11----------11-9-8----------------------------| 
D|-9-11------------------------------------------11-9-7---------------------| 
A|------------------------------------------------------11-9-7--7-7h9-9/11--| 
E|--------------------------------------------------------------------------| 

e|--------------------------------------------------------------------------| 
B|--------------------------------------------------------------------------| 
G|-----------------------6-9/11/13-13h14-13\11\9-9h11-9\7\6-------9-11------| 
D|-9-7-6----9/11-9p7-6-7-------------------------------------9-11-----------| 
A|-------9------------------------------------------------------------------| 
E|--------------------------------------------------------------------------| 

e|------------------------------------9-9h10-9--------------------/12-11----| 
B|-9-10-12-10-12----10-12-10-12-10-12----------12--10-12/14-14-14-----------| 
G|---------------11---------------------------------------------------------| 
D|--------------------------------------------------------------------------| 
A|--------------------------------------------------------------------------| 
E|--------------------------------------------------------------------------| 

e|-9------------------------------------------------------------------------| 
B|---12-------------12-12---12-10-9--------9-------------------12-12---10/12| 
G|----------9-11-11-----------------9-9h11---11------9-9-11-11--------------| 
D|-------/9---------------9----------------------9-9-----------------9------| 
A|--------------------------------------------------------------------------| 
E|--------------------------------------------------------------------------| 

e|--------------------------------------------------------------------------| 
B|-10-9-9------------------------12-12---10/12-10-9--------9----------------| 
G|--------11p9-11------9-9-11-11--------------------9-9h11---11------9-9----| 
D|-----------------9-9-----------------9-------------------------9-9--------| 
A|--------------------------------------------------------------------------| 
E|--------------------------------------------------------------------------| 

e|--------------------------------------------------------------------------| 
B|-------12-12---10/12-10-9-9-----------------------------------------------| 
G|-11-11----------------------11--------------------------------------------| 
D|-------------9------------------------------------------------------------| 
A|--------------------------------------------------------------------------| 
E|--------------------------------------------------------------------------| 
 
		  

See also:

tabs Hale - Blue Sky tabs No Doubt - don't speak solo tabs Red Hot Chili Peppers - Tell Me Baby tabs Red Hot Chili Peppers - Fortune Faded tabs Audioslave - I Am the Highway tabs Red Hot Chili Peppers - Road Trippin'
e-chords

Other versions:

tabs Andy Timmons - September
auto scroll beats size up size down change color hide chords drawings
tab show chords e-chords YouTube Clip e-chords hide all tabs e-chords go to top tab

share