Andy Grammer

home > Andy Grammer

Ladies Tab

Andy Grammer

Difficulty: nolevelnolevel

by brunblazkowski

tuner correct add songbook print version text version save to e-mail
chordsukulelecavacokeyboardtabbassdrumsharmonicsflute Guitar Pro
chords

Ladies

Key:  G More
Ladies Key DD
Ladies Key D#D#
Ladies Key EE
Ladies Key FF(one step down)
Ladies Key F#F#(half step down)
Ladies Key GG(original key)
Ladies Key G#G#(half step up)
Ladies Key AA(one step up)
Ladies Key A#A#
Ladies Key BB
Ladies Key CC
Ladies Key C#C#
  		
Intro/ Verse 
e|----------------------| 
B|----------------------| 
G|---4-4-x--------------| 
D|---5-5-x-5-x----------| 
A|---------7-x-5--3-3---| 
E|-------------7--5-5---|X19 


Chorus 
    G            A 
e|-------------------------| 
B|-------------------------| 
G|--4--4--4--4/-55-5-------| 
D|--5--5--5--5/-55-5-------| 
A|--5--5--5--5/-55-5-------| 
E|--3--3--3--3/-55-5-------| 


Verse 
______ 
Chorus 
______ 
Bridge 
    C           G             B            E 
e|-------------------------------------------------| 
B|--1xxx1-1-1--------------------------------------| 
G|--0xxx0-0-0----------------2xxx2-2-2----1---1-1-1| 
D|--2xxx2-2-2---0xxx0-0-0----1xxx1-1-1----2xxx2-2-2| 
A|--3xxx3-3-3---2xxx2-2-2----2xxx2-2-2----2xxx2-2-2| 
E|--------------3xxx3-3-3-----------------0xxx0-0-0| 

Bridge Pt. 2 
    G   G   B   E   G   G   F F 
e|--3~--2~--0~--0~--3~--2~-----------| 
B|--3~--0~--0~--0~--3~--0~-----------| 
G|--0~--0~--2~--0~--0~--0~--4-4------| 
D|--0~--0~--1~--2~--0~--0~--3-3------| 
A|--2~--0~--2~--2~--2~--0~--3-3------| 
E|--3~--3~--0~--0~--3~--3~--1-1-(x12)| 


Verse 

Chorus 

Outro (Verse) 
	  

Full key step upFull key step up
Half key step upHalf key step up
Half key step downHalf key step down
Full key step downFull key step down
Search Paypal
auto scroll beats size up size down change color hide chords drawings
tab show chords e-chords YouTube Clip e-chords hide all tabs e-chords go to top tab