Andrew WK

We Want Fun

Andrew WK

tabs

save to print version add songbook text version e-mail correct tuner
chordsukulelecavacokeyboardtabbassdrumsharmonicaflute Guitar Pro
close

there isn't a video lesson for this song

chords

We Want Fun

	  		 
-----------------------|------------------------------------------------------ 
-----------------------|------------------------------------------------------ 
-----------------------|-9-9-8-8-6-6------------------------------------------ 
-----------------------|-------------9-9-7-7-6-6-----9-9---------------------- 
-----------------------|-------------------------9-9-------------------------- 
-----------------------|------------------------------------------------------ 
 (Intro) Drums open up | Play this twice...                                    
 
------------------------------------------------------------------------------ 
------------------------------------------------------------------------------ 
-9-9-xx-8-8-xx-6-6-xx--------------------------------------------------------- 
-9-9-xx-8-8-xx-6-6-xx-9-9-xx-7-7-xx-6-6-xx-4-4-4/9-9-9------------------------ 
-7-7-xx-6-6-xx-4-4-xx-9-9-xx-7-7-xx-6-6-xx-4-4-4/9-9-9------------------------ 
----------------------7-7-xx-5-5-xx-4-4-xx-2-2-2/7-7-7------------------------ 
 (Intro Continued) Play this four times with distortion...                     
 
------------------------------------------------------------------------------ 
------------------------------------------------------------------------------ 
-9-9-9-----------9-9-9-----------6-6-6-----------xxx-4-xx-4-xx-4-xx-4-xx------ 
-9-9-9-----------9-9-9-----------6-6-6-----------xxx-4-xx-4-xx-4-xx-4-xx------ 
-7-7-7-----------7-7-7-----------4-4-4-----------xxx-2-xx-2-xx-2-xx-2-xx------ 
--------0055545---------0055545---------0055545------------------------------- 
 (Intro Continued S'more) Play Two Times                                       
 
------------------------------------------------------------------------------ 
------------------------------------------------------------------------------ 
-9-9-8-8-6-6------------------------------------------------------------------ 
-------------9-9-------------------------------------------------------------- 
------------------------------------------------------------------------------ 
------------------------------------------------------------------------------ 
 Pre-Verse                                                                     
 
------------------------------------------------------------------------------ 
------------------------------------------------------------------------------ 
-----9-9-8-8-6-6-------------------------------------------------------------- 
-2/9-9-9-8-8-6-6--9-9-7-7-6-6-4-4-4/9-9-9------------------------------------- 
-2/9-7-7-6-6-4-4--9-9-7-7-6-6-4-4-4/9-9-9------------------------------------- 
-0/7--------------7-7-5-5-4-4-2-2-2/7-7-7------------------------------------- 
 (Verse) Vocals Kick In, Play 4 Times                                          
 
-------------------------------|---------------------------------------------- 
-------------------------------|---------------------------------------------- 
-9-9-9-9-----------------------|-9-9-9-9---------9-9-8-8-6-6------------------ 
-9-9-9-9-9-9-9-9-6-6-6-6-6-6-6-|-9-9-9-9-9-9-9-9-9-9-8-8-6-6-9-9-------------- 
-7-7-7-7-9-9-9-9-6-6-6-6-6-6-6-|-7-7-7-7-9-9-9-9-7-7-6-6-4-4-9-9-------------- 
---------7-7-7-7-4-4-4-4-4-4-4-|---------7-7-7-7-------------7-7-------------- 
 (Pre-Chorus) Play this twice... Then Play This...                             
 
------------------------------------------------------------------------------ 
------------------------------------------------------------------------------ 
-----------------xxx-4-xx-4-xx-4-xx-4-xx-------------------------------------- 
-7-7-7-7-7-7-7-7-xxx-4-xx-4-xx-4-xx-4-xx-------------------------------------- 
-7-7-7-7-7-7-7-7-xxx-2-xx-2-xx-2-xx-2-xx-------------------------------------- 
-5-5-5-5-5-5-5-5-------------------------------------------------------------- 
 (Pre-Chorus Continued)                                                        
 
------------------------------------------------------------------------------ 
------------------------------------------------------------------------------ 
--9-9-9---------9-9-9---------6-6-6---------xxx-4-xx-4-xx-4-xx-4-xx----------- 
--9-9-9---------9-9-9---------6-6-6---------xxx-4-xx-4-xx-4-xx-4-xx----------- 
--7-7-7---------7-7-7---------4-4-4---------xxx-2-xx-2-xx-2-xx-2-xx----------- 
--------0055545-------0055545-------0055545----------------------------------- 
 (Chorus) Play This Twice                                                      
 
------------------------------------------------------------------------------ 
------------------------------------------------------------------------------ 
-9-9-8-8-6-6------------------------------------------------------------------ 
-9-9-8-8-4-4-9-9-7-7---------------------------------------------------------- 
-7-7-6-6-2-2-9-9-7-7---------------------------------------------------------- 
-----------------7-7-5-5---------------------------------------------------------- 
 (Chorus Continued)    "We wanna have fun and we wanna get wasted!!!" 
 
_______________________________________________________ 
Contribuição: Alexandre Tadeu Lazaro([email protected]) 

		  

See also:

tabs Bon Jovi - Wanted dead or Alive tabs Guns N' Roses - Estranged tabs Kiss - Forever tabs The Doors - Roadhouse Blues tabs Guns N' Roses - Bohemian Rhapsody tabs Van Halen - Pretty Woman
e-chords

Other versions:

tabs Andrew WK - We Want Fun
auto scroll beats size up size down change color hide chords drawings
tab show chords e-chords YouTube Clip e-chords hide all tabs e-chords go to top tab

share