Anberlin

Naive orleans

Anberlin

tabs Beginner beginner

by  EUROPEU

save to print version add songbook text version e-mail correct tuner
chordsukulelecavacokeyboardtabbassdrumsharmonicaflute Guitar Pro
close

there isn't a video lesson for this song

chords

Naive orleans

Year: 2003 - Album: Blueprints for the Black Market

	  		Intro: 
 
e--------------------------------------| 
b-------------------------------2------| 
g--------8-----------5------1----------| 
d----6-----------6---------------------|  x4 
a--4---4-------3---3-------------------| 
E-------------------------2---2--------| 
 
"Come and go now as you please..." 
 
 
... or if you can make the stretch, 
that last chord can be played: 
 
e-----------| 
b-----------| 
g--------6--| 
d----6------| 
a-----------| 
E--2---2----| 
 
but who cares 
 
 
Intro Part 2: 
 
e-------------------------------------------------------| 
b-------2------------4-----------6----------------------| 
g---1-----1------3-----3-----6-----6-------------8------| 
d------------------------------------------6--------6---|   x2 
a---------------------------------------4-----4---------| 
E--2--2---------4--4--------6--6------------------------| 
 
"And I've finally found that life goes on without you..." 
 
 
e------| 
b------| 
g------| 
d--4~--  let this ring... 
a--4~-- 
E--2~-- 
 
 
the verse is played with a pretty mean, post-amp phaser... but that doesn't matter if  
just learning 
 
The chords that are palm muted have a "." underneath them. 
 
Verse: 
 
e----|-------------------------------------------------------| 
b----|-------------------------------------------------------| 
g----|--6-6-6-6-6-6-6-6-6-6-6-6-6-6-3-3-3-3-3-3--------------| 
d--4-|--6-6-6-6-6-6-6-6-6-6-6-6-6-6-3-3-3-3-3-3-4-4-4-4-4-6--|   x4 
a--4-|--4-4-4-4-4-4-4-4-4-4-4-4-4-4-1-1-1-1-1-1-4-4-4-4-4-6--| 
E--2-|------------------------------------------2-2-2-2-2/4--| 
            . . . . . . . . . . .       . . .       . . 
 
"Is this the way you want it?...." 
 
 
The strumming pattern for the chours is a little tough and if I tab it the way it sounds  
it might throw you off time... so I'm just putting each chord down 4 times for a four-count. 
 
Chorus: 
 
e----------------------------------------| 
b----------------------------------------| 
g--------------------3-3-3-3--6-6-6-6----| 
d--4-4-4-4--6-6-6-6--3-3-3-3--6-6-6-6----|   x4 
a--4-4-4-4--6-6-6-6--1-1-1-1--4-4-4-4----| 
E--2-2-2-2--4-4-4-4----------------------| 
 
"And I've finally found that life goes on without you..." 
 
If you can hear it... theres a little riff behind the Chorus that goes... 
 
(again, not the exact strumming) 
 
e----------------------------------------| 
b--9-9-9-9--9-9-9-9--9-9-9-9--9-9-9-9----| 
g--6-6-6-6--8-8-8-8--6-6-6-6--8-8-8-8b---| 
d----------------------------------------|   x4 
a----------------------------------------| 
E----------------------------------------| 
 
But its so covered up that its almost unnecessary 
 
 
Then the second half of the Chorus comes? 
 
This is the correct number of times to hit the chords? it goes kind of fast? 
 
Breakdown: 
 
e----------------------------------------| 
b----------------------------------------| 
g--3-3-3-------------3-3-3---------------| 
d--3-3-3-6-6-6-4-4-4-3-3-3-6-6-4-4-------| 
a--1-1-1-6-6-6-4-4-4-1-1-1-6-6-4-4-------| 
E--------4-4-4-2-2-2-------4-4-2-2-------| 
 
?And I?ve finally found that all? 
 
 
Other Part: 
 
Guitar 1 
e----------------------------------------| 
b----------------------------------------| 
g--6-6-6-6-6-6-6-6-----------------------| 
d--6-6-6-6-6-6-6-6-4-4-4-4-4-4-4-4-------|   x2 
a--4-4-4-4-4-4-4-4-4-4-4-4-4-4-4-4-------| 
E------------------2-2-2-2-2-2-2-2-------| 
 
Guitar 2 
e----------------------------------------| 
b----------------------------------------| 
g-10101010-8-81010-6-6-6-6-6-6-6-6-------| 
d--x-x-x-x-x-x-x-x-x-x-x-x-x-x-x-x-------|   x2 
a--8-8-8-8-6-6-8-8-4-4-4-4-4-4-4-4-------| 
E----------------------------------------| 
 
?Your actions write the melodies? 
 
 
The next part has a chord that can?t be played with standard tuning? and for the sake of  
not having to re-write this whole tab? please just play it an octave up? 
 
 
e-------------------------------------------------| 
b-------------------------------------------------| 
g--8-8-8-8-8-8-8-8---6-6----6-6--------6h8p6-5----| 
d--8-8-8-8-8-8-8-8---6-6-4--6-6--6~------------6~-| 
a--6-6-6-6-6-6-6-6---4-4-4--4-4--6~---------------| 
E------------------------2-------4~---------------| 
 
?And you just sing along out loud, yeah? 
 
 
The bass in this next part does something a little different and drowns out the guitar?  
this is right? either that or its totally wrong who cares this sounds good. 
 
 
e--------------------------------------| 
b--------------------------------------| 
g--6-6-6-6-6-6-------------------------| 
d--6-6-6-6-6-6-6-6-4-4-4-4-4-4-4-4-----|    x3 
a--4-4-4-4-4-4-6-6-4-4-4-4-4-4-4-4-----| 
E--------------4-4-2-2-2-2-2-2-2-2-----| 
 
?Come and go now, as you please? 
 
 
Then theres the little solo thing? 
 
e-----------------------------| 
b--9-9-9-9-9-9-9-9------------| 
g--6-8-8-6-8-8-8b8------------| 
d-----------------------------| 
a-----------------------------| 
E-----------------------------| 
 
Then play the Chorus again? if you don?t remember it? I wont make you scroll and find it? 
 
Chorus: 
 
e----------------------------------------| 
b----------------------------------------| 
g--------------------3-3-3-3--6-6-6-6----| 
d--4-4-4-4--6-6-6-6--3-3-3-3--6-6-6-6----|   x4 
a--4-4-4-4--6-6-6-6--1-1-1-1--4-4-4-4----| 
E--2-2-2-2--4-4-4-4----------------------| 
 
"And I've finally found that life goes on without you..." 
 
 
Everything else you need to know is up there somewhere? sorry if I screwed anything up.  
tried to tab this as best as possible. 
 
I will now begin work on ?Audrey, Start the Revolution!? because there is also no tab  
that. 
 
 

		  

auto scroll beats size up size down change color hide chords drawings
tab show chords e-chords YouTube Clip e-chords hide all tabs e-chords go to top tab

share