Anamanaguchi

home > Anamanaguchi

Jetpack Blues Sunset Hues Tab

Anamanaguchi

Difficulty: nolevelnolevel

by lucicamargo

tuner correct add songbook print version text version save to e-mail
chordsukulelecavacokeyboardtabbassdrumsharmonicsflute Guitar Pro
chords

Jetpack Blues Sunset Hues

	  
Intro 
(No Guitar) 

verse 1 
(Part one) 
e|------------------------6-------6------6------4---2~~---| 
B|------------11------2-4---2---4---2--4---2--6-----------| 
G|-8/11~--------------------------------------------------| 
D|---------11---------------------------------------------| 
A|--------------------------------------------------------| 
E|--------------------------------------------------------| 

e|---2-4-6~-------2-4-6-4~---9p6---9p6---9p6---6----------| 
B|-4----------2-4----------------9-----9-----9---9-7-9--7~| 
G|--------------------------------------------------------| 
D|--------------------------------------------------------| 
A|--------------------------------------------------------| 
E|--------------------------------------------------------| 

(Small Verse Bridge Part) 
e|-----------------------------------9--------------------| 
B|--------------------------------11----------------------| 
G|-3-3-3-3-4-4-4-4-6--8-6-3-1-3--------10-----------------| 
D|--------------------------------------------------------| 
A|--------------------------------------------------------| 
E|--------------------------------------------------------| 

(Part two) 
e|-6--7----4--6--7----------------------------------------| 
B|------4----------6~-------------------------------------| 
G|--------------------------------------------------------| 
D|--------------------------------------------------------| 
A|--------------------------------------------------------| 
E|--------------------------------------------------------| 

(Small Bridge part repeated) 
e|-----------------------------------9--------------------| 
B|--------------------------------11----------------------| 
G|-3-3-3-3-4-4-4-4-6--8-6-3-1-3--------10-----------------| 
D|--------------------------------------------------------| 
A|--------------------------------------------------------| 
E|--------------------------------------------------------| 


e|-6--7----6-4-6-9-6-9-11~~-14-18-16-14-16----------------| 
B|------4----------------------------------16~-16\-16\-16\| 
G|--------------------------------------------------------| 
D|--------------------------------------------------------| 
A|--------------------------------------------------------| 
E|--------------------------------------------------------| 

e|-14-18-16-13-14-16-----13-11--14-18-19-18-16-18~~-------| 
B|--------------------15----------------------------------| 
G|--------------------------------------------------------| 
D|--------------------------------------------------------| 
A|--------------------------------------------------------| 
E|--------------------------------------------------------| 

e|-------------4-2----------------------------------------| 
B|-6-2-6-7~--4-----4--2--11--9-11-9-7-6-------------------| 
G|--------------------------------------------------------| 
D|--------------------------------------------------------| 
A|--------------------------------------------------------| 
E|--------------------------------------------------------| 

Repeat Entire Verse Again 

(Part after cool guitar part) 
e|-------------------------------14-13-------18-16----------------------14-13----------------| 
B|-9-11-11-9-11--7-9-9-7-9-11-7--------14-16-------18-16--14-16--16-14---------11-12-14------| 
G|-------------------------------------------------------------------------------------------| 
D|-------------------------------------------------------------------------------------------| 
A|-------------------------------------------------------------------------------------------| 
E|-------------------------------------------------------------------------------------------| 

       {use fret 11 on the e if you don't have a 23rd fret} 
e|----------------------------23--14-13-------18-16----------------------13-(16)-------------| 
B|-9-11-11-9-11--7-9-9-7-9-11-----------14-16-------18-16-14-16-14-16-16---------11-9-11-9-7~| 
G|-------------------------------------------------------------------------------------------| 
D|-------------------------------------------------------------------------------------------| 
A|-------------------------------------------------------------------------------------------| 
E|-------------------------------------------------------------------------------------------| 

(Outro Coming Soon!) 
************************************ 

| (n) Ghost note 
| p   Pull-off 
| /   Slide up 
| \   Slide down 
| ~   Vibrato 

************************************ 
	  

there isn't a video lesson for this song

request
Search Paypal
auto scroll beats size up size down change color hide chords drawings
tab show chords e-chords YouTube Clip e-chords hide all tabs e-chords go to top tab