Amen

Mujer Diablo

Amen

tabs

by  PAULLET3

save to print version add songbook text version e-mail correct tuner
chordsukulelecavacokeyboardtabbassdrumsharmonicaflute Guitar Pro
close

there isn't a video lesson for this song

chords

Mujer Diablo

(Marcello Motta)

	  		este es el tab de mujer diablo 
dedicada pa toas las q me 
 tientan ps jajaj!! 

INTRO 
----------------------------------- 
----------------------------------- 
-7-5-----------------7-5-----------X2 
-7-5-7-7-7-7-7-7-5-7-7-5-7-7-7-7--- 
-5-3-7-7-7-7-7-7-5-7-5-3-7-7-7-7--- 
-----5-5-5-5-5-5-3-5-----5-5-5-5--- 
SLIDE 
----------------------------------- 
----------------------------------- 
----5-7s9-/7s9-7s5s7-s10s9-s14s12-- 
-s7-------------------------------- 
----------------------------------- 
----------------------------------- 

----------------------------------- 
----------------------------------- 
-10s9-9s19s9s7-s5-s14-s16s19------- 
----------------------------------- 
----------------------------------- 
----------------------------------- 
VOZ 
----------------------------------- 
----------------------------------- 
-------------7-5-------------7-5--- 
-7-7-7-7-5-7-7-5-7-7-7-7-7-7-7-5--- 
-7-7-7-7-5-7-5-3-7-7-7-7-7-7-5-3--- 
-5-5-5-5-3-5-----5-5-5-5-5-5------- 

----------------------------------- 
----------------------------------- 
-----------------7-5----------22s5- 
-7-7-7-7-7-7-5-7-7-5-7-7-7-7------- 
-7-7-7-7-7-7-5-7-5-3-7-7-7-7------- 
-5-5-5-5-5-5-3-5-----5-5-5-5------- 

----------------------------------- 
----------------------------------- 
-------------7-5-------------7-5--- 
-7-7-7-7-5-7-7-5-7-7-7-7-7-7-7-5--- 
-7-7-7-7-5-7-5-3-7-7-7-7-7-7-5-3--- 
-5-5-5-5-3-5-----5-5-5-5-5-5------- 

----------------------------------- 
----------------------------------- 
-----------------7-5----------12s5- 
-7-7-7-7-7-7-5-7-7-5-7-7-7-7------- 
-7-7-7-7-7-7-5-7-5-3-7-7-7-7------- 
-5-5-5-5-5-5-3-5-----5-5-5-5------- 
no t preocupa ..... 
-3-3-3p2h3-3-3-3p2h3-3-3-3-3------- 
-3-3-3p2h3-3-3-3p2h3-5-5-5-5------- 
-4-4-------4-4-------5-5-5-5------- 
-5-5-------5-5-------5-5-5-5------- 
-5-5-------5-5-------3-3-3-3------- 
-3-3-------3-3--------------------- 
no te importa nada mas.... 
-5-5~~----------------------------- 
-5-5~~----------------------------- 
-5-5~~--------------4h5-4---------- 
-7-7~~---------7-5-7-----7-5------- 
-7-7~~----------------------------- 
-5-5~~----------------------------- 
estas jugando....solo quieres llevar... 
-3-3-3p2h3-3-3-3p2h3-3-3-3-3------- 
-3-3-3p2h3-3-3-3p2h3-5-5-5-5------- 
-4-4-------4-4-------5-5-5-5------- 
-5-5-------5-5-------5-5-5-5------- 
-5-5-------5-5-------3-3-3-3------- 
-3-3-------3-3--------------------- 
tu juego hasta el final.. 
-5-5-5-5--5-5-5-5------------------ 
-7-7-7-7--7-7-7-7------------------ 
-7-7-7-7--7-7-7-7------------------ 
-7-7-7-7--7-7-7-7------------------ 
-5-5-5-5--5-5-5-5------------------ 
----------------------------------- 
ahora estoy a punto de caer... 
----------------------------------- 
----------------------------------- 
----------------------------------- 
----------------------------------- 
---7~-5~-4~-5~--7~-5~-4~-5~-------- 
-0-------------0------------------- 
no .. me.. empujes... mas... 
-----------------------------x-x--- 
-----------------------------x-x--- 
-----------------------------x-x--- 
-----------------------------x-x--- 
-5h7-5-----------------------x-x--- 
-----------7-5----------0----x-x--- 
SLIDE 
----------------------------------- 
----------------------------------- 
-----5-7s9/-7s9-7s5s7s10s9s14s12--- 
-5-7------------------------------- 
----------------------------------- 
----------------------------------- 

----------------------------------- 
----------------------------------- 
-10s9-9s10s9s7s5s14s16s19---------- 
----------------------------------- 
----------------------------------- 
----------------------------------- 
eres un demonio mas... 
----------------------------------- 
----------------------------------- 
-------------7-5------------------- 
-7-7-7-7-5-7-7-5-7-7-7-7----------- 
-7-7-7-7-5-7-5-3-7-7-7-7----------- 
-5-5-5-5-3-5-----5-5-5-5----------- 

----------------------------------- 
----------------------------------- 
----------7-5-------------7-5------ 
--7-7-5-7-7-5-7-7-7-7-7-7-7-5------ 
--7-7-5-7-5-3-7-7-7-7-7-7-5-3------ 
--5-5-3-5-----5-5-5-5-5-5---------- 

----------------- 
----------------- 
-----------s20s5- 
--7-7-7-7-------- 
--7-7-7-7-------- 
--5-5-5-5-------- 
saca tu cola de mi.... 
----------------------------------- 
----------------------------------- 
-------------7-5------------------- 
-7-7-7-7-5-7-7-5-7-7-7-7----------- 
-7-7-7-7-5-7-5-3-7-7-7-7----------- 
-5-5-5-5-3-5-----5-5-5-5----------- 

----------------------------------- 
----------------------------------- 
----------7-5-------------7-5------ 
--7-7-5-7-7-5-7-7-7-7-7-7-7-5------ 
--7-7-5-7-5-3-7-7-7-7-7-7-5-3------ 
--5-5-3-5-----5-5-5-5-5-5---------- 

----------------- 
----------------- 
-----------s12s5- 
--7-7-7-7-------- 
--7-7-7-7-------- 
--5-5-5-5-------- 
no t preocupa ..... 
-3-3-3p2h3-3-3-3p2h3-3-3-3-3------- 
-3-3-3p2h3-3-3-3p2h3-5-5-5-5------- 
-4-4-------4-4-------5-5-5-5------- 
-5-5-------5-5-------5-5-5-5------- 
-5-5-------5-5-------3-3-3-3------- 
-3-3-------3-3--------------------- 
no te importa nada mas.... 
-5-5~~----------------------------- 
-5-5~~----------------------------- 
-5-5~~--------------4h5-4---------- 
-7-7~~---------7-5-7-----7-5------- 
-7-7~~----------------------------- 
-5-5~~----------------------------- 
estas jugando....solo quieres llevar... 
-3-3-3p2h3-3-3-3p2h3-3-3-3-3------- 
-3-3-3p2h3-3-3-3p2h3-5-5-5-5------- 
-4-4-------4-4-------5-5-5-5------- 
-5-5-------5-5-------5-5-5-5------- 
-5-5-------5-5-------3-3-3-3------- 
-3-3-------3-3--------------------- 
tu juego hasta el final.. 
-5-5-5-5--5-5-5-5------------------ 
-7-7-7-7--7-7-7-7------------------ 
-7-7-7-7--7-7-7-7------------------ 
-7-7-7-7--7-7-7-7------------------ 
-5-5-5-5--5-5-5-5------------------ 
----------------------------------- 
ahora estoy a punto de caer... 
----------------------------------- 
----------------------------------- 
----------------------------------- 
----------------------------------- 
---7~-5~-4~-5~--7~-5~-4~-5~-------- 
-0-------------0------------------- 
no .. me.. empujes... mas... 
-----------------------------x-x--- 
-----------------------------x-x--- 
-----------------------------x-x--- 
-----------------------------x-x--- 
-5h7-5-----------------------x-x--- 
-----------7-5----------0----x-x--- 

SOLO 1 
----------------------------------- 
----------------------------------- 
----5-7s9-7s5s7-s10s9-s7s5-s7s5s7-- 
-5-7------------------------------- 
----------------------------------- 
----------------------------------- 

----------------------------------- 
----------------------------------- 
-7s5s7s9s7s5s10s9s7s5-s14s12s14s12- 
----------------------------------- 
----------------------------------- 
----------------------------------- 

----------------------------------- 
----------------------------------- 
-s10s9s10s9-s14s12s14s12-s10s9s10s9 
----------------------------------- 
----------------------------------- 
----------------------------------- 

----------------------------------- 
----------------------------------- 
-s10s14s17s19s21~~----------------- 
----------------------------------- 
----------------------------------- 
----------------------------------- 
SOLO 2 
----7--------7--------7------7----- 
------10p7----10p7----10p7----10p7- 
-9^--------9^-------9^-----9^------ 
----------------------------------- 
----------------------------------- 
----------------------------------- 

----------------------------------- 
----------------------------------- 
-9^p7-9-7-------------------------- 
----------9p7-7h9~-9p7h9p7h9p7h9... 
----------------------------------- 
----------------------------------- 

----7----7---7?12^^~~-------------- 
---7----7-------------------------- 
-9^---9^---9^---------------------- 
----------------------------------- 
----------------------------------- 
----------------------------------- 
OUTRO 
----------------------------------- 
----------------------------------- 
-7-5---------7-5---------7-5------- 
-7-5-7-7-7-7-7-5-7-7-7-7-7-5------- 
-5-3-7-7-7-7-5-3-7-7-7-7-5-3------- 
-----5-5-5-5-----5-5-5-5----------- 

----------------------------------- 
----------------------------------- 
-----------7-5---------7-5--------- 
---7-7-7-7-7-5-7-7-7-7-7-5-7-7-7-7- 
---7-7-7-7-5-3-7-7-7-7-5-3-7-7-7-7- 
---5-5-5-5-----5-5-5-5-----5-5-5-5- 

----------------------------------- 
----------------------------------- 
---------7-5---------7-5----------- 
-7-7-7-7-7-5-7-7-7-7-7-5-7-7-7-7--- 
-7-7-7-7-5-3-7-7-7-7-5-3-7-7-7-7--- 
-5-5-5-5-----5-5-5-5-----5-5-5-5--- 

--------------- 
--------------- 
-7-5----------- 
-7-5---7-7-7-7- 
-5-3---7-7-7-7- 
-------5-5-5-5-
		  

See also:

tabs No se quien y los no se cuantos - Las Torres tabs Aeropajitas - Exterminio tabs Libido - Reset tabs Pedro Suarez Vertiz - Cuando Pienses en Volver tabs Libido - Respirando tabs Libido - Ojos De Angel
e-chords

Other versions:

tabs Amen - Mujer Diablo
auto scroll beats size up size down change color hide chords drawings
tab show chords e-chords YouTube Clip e-chords hide all tabs e-chords go to top tab

share