Altrik

Girl's mistake

Altrik

tabs

by  DAVID80

save to print version add songbook text version e-mail correct tuner
chordsukulelecavacokeyboardtabbassdrumsharmonicaflute Guitar Pro
close

there isn't a video lesson for this song

chords

Girl's mistake

	  		  
 girl's mistake-altrik 
 
 play intro 2x  
 play vesre 4x 
  
 intro+verse 
  
 e - ----------------------------------------------- 
 b - ----------------------------------------------- 
 g - ----------------------------------------------- 
 d - 5-5-5-5-5-5-5-5-------------------------------- 
 a - 3-3-3-3-3-3-3-3-5-5-5-5-5-5-5-5-3-3-3-3-3-3-3-3 
 e - ----------------3-3-3-3-3-3-3-3-1-1-1-1-1-1-1-1 
  
  ref : 4x 
  
 d-  5-5-5-5-5-5-5-5---------------------------------3/5-5-5-5-5-5-5------- 
 a - 3-3-3-3-3-3-3-3-5-5-5-5-5-5-5-5-3-3-3-3-3-3-3-3-1/3-3-3-3-3-3-3------- 
 e - ----------------3-3-3-3-3-3-3-3-1-1-1-1-1-1-1-1--------------- 
 
  
 am :) sorry but this tab's are fisrt whic I made by my self! 

		  

auto scroll beats size up size down change color hide chords drawings
tab show chords e-chords YouTube Clip e-chords hide all tabs e-chords go to top tab

share