Alter Bridge

home > Alter Bridge

Waters Rising Tab

Alter Bridge

Difficulty: AdvancedAdvanced

by hebealmeida

tuner correct add songbook print version text version save to e-mail
chordsukulelecavacokeyboardtabbassdrumsharmonicsflute Guitar Pro
chords

Waters Rising

  		Verse 
* Signifies natural harmonic                   
Eb|---------0--------------------------------0----------------------------------| 
Bb|-15-------------15p13-------------13------------------------8----------------| 
Gb|------------------------0---------------------------0h10----------12/11------| 
Db|-------------------------------------------------------------------------0---| 
Ab|-----------------------------------------------------------------------------| 
Db|-15---15---15---15---15---15/14---14---14---14/10---10---10---10---0---0---0-| 

------------------------------------| 
--10----------10--------------------| 
------12------------------7*--------| 
--------------------------------7*--| 
------------------------------------| 
--0---0---0---0---0---0---0---0---0-| 


2nd time through 

Eb|---------0--------------------------------0----------------------------------| 
Bb|-15-------------15p13-------------13------------------------8----------------| 
Gb|------------------------0---------------------------0h10-----------------7---| 
Db|-------------------------------------------------------------------5/4-------| 
Ab|-----------------------------------------------------------------------------| 
Db|-15---15---15---15---15---15/14---14---14---14/10---10---10---10---0---0---0-| 

------------------------------------| 
--5-----------5---------------------| 
--------7---------------------------| 
--------------------------0-4---5---| 
------------------------------------| 
--0---0---0---0---0---0---0---0---0-| 


Pre Chorus 
^ Signifies Palm Mute              
Eb|-----------------------------|         |-----------------------|          |---------------| 
Bb|-----------------------------|         |-----------------------|          |---------------| 
Gb|-----------------------------|         |-----------------------|          |---------------| 
Db|-----------0-3p0-------------| 3x then |--0-7--7--7--0-5--5--5-| 2nd time |--0-6-6-6--3-3-| 
Ab|-----3h4h5-------5p3p0-------|         |--0-5--5--5--0-3--3--3-|          |--0-6-6-6--3-3-| 
Db|-0---------------------5p3p0-|         |--0----------0---------|          |--0-6-6-6--3-3-| 
                                             ^          ^                       ^   
Chorus Chords 

Eb|----------------------| 
Bb|----------------------| 
Gb|-(10)-----------------| 
Db|--10----9-----5--5--0-| 
Ab|--8-----5-----3--3--0-| 
Db|--8-----5-----3--2--0-| 
	  

Search Paypal
auto scroll beats size up size down change color hide chords drawings
tab show chords e-chords YouTube Clip e-chords hide all tabs e-chords go to top tab