Alter Bridge

One Day Remains

Alter Bridge

tabs Beginner beginner

save to print version add songbook text version e-mail correct tuner
chordsukulelecavacokeyboardtabbassdrumsharmonicaflute Guitar Pro
close

there isn't a video lesson for this song

chords

One Day Remains

	  		 
Intro  
gtr1  
eb|--------------------|  
bb|--------------------|  
gb|--------------------|  
Db|-------------*7-----|  
Ab|-0-*12-*5--*7-------|  
Eb|--------------------|  
 
drums kick in  
gtr1  
eb|----------------------------------------------------------------|  
bb|----------------------------------------------------------------|  
gb|----------------------------------------------------------------|  
Db|-*7~~~~~~~~~~~~~~~~~~~------------------------------------------|  
Ab|-*5-----------------------------*7~~~~~~~~~~~~~~~~~~~~~~~~~~----|  
Eb|--------------------------------*5------------------------------|  
 
gtr1    PH at neck pickup  
eb|----------------------------------------------------------------|  
bb|----------------------------------------------------------------|  
gb|-4---~~~~~~~~~~~~~~~~~~~~~~~~~~~~b5b4-~~~~~~~~~~~~~~~~~~~~------|  
Db|----------------------------------------------------------------|  
Ab|----------------------------------------------------------------|  
Eb|----------------------------------------------------------------|  
 
gtr1  
eb|----------------------------------------*12~~~~~~~~~------------|  
bb|----------------------------------------------------------------|  
gb|----------------------------------------------------------------|  
Db|-*7-~~~~~~~~~~~~~~~~~~~~~~--------------------------------------|  
Ab|-*5-----------------------------*7-~~~~~~~~~~~~~~~~~~~~~--------|  
Eb|--------------------------------*5-~~~~~~~~~~~~~~~~~~~~---------|  
 
gtr1                                     PS  
eb|----------------------------------------------------------------|  
bb|-0--------------------------------------------------------------|  
gb|-4--------------------------------------------------------------|  
Db|--------------------------------------\\\\\\\\\\\\\\\\\\\\\\\\\\|  
Ab|--------------------------------------\\\\\\\\\\\\\\\\\\\\\\\\\\|  
Eb|----------------------------------------------------------------|  
 
preverse 1  
gtr1  wah..........................................................  
eb|----------------------------------------------------------------|  
bb|----------------------------------------------------------------|  
gb|----------------------------------------------------------------|  
Db|----------------------------------------------------------------|  
Ab|12-0-9-0-0-0-0-0-7-0-0-0-7-0-7-6-----7-------7---6-------7---6-4|  
Eb|---------------------------------4-4---4-4-4---4---4-4-4---4----|  
 
gtr1....................(wah)......................................  
eb|----------------------------------------------------------------|  
bb|----------------------------------------------------------------|  
gb|----------------------------------------------------------------|  
Db|----------------------------------------------------------------|  
Ab|-2-0-2-6-2-0-2-0-2-6-2-0-2-6-2-0-2-0-2-6-2-0-2-6-2-4-2-0-2-4-2-0|  
Eb|----------------------------------------------------------------|  
 
gtr1wah............................................................  
eb|----------------------------------------------------------------|  
bb|----------------------------------------------------------------|  
gb|----------------------------------------------------------------|  
Db|----------------------------------------------------------------|  
Ab|12-0-9-0-0-0-0-0-7-0-0-0-7-0-7-6-----7-------7---6-------7---6-4|  
Eb|---------------------------------4-4---4-4-4---4---4-4-4---4----|  
 
gtr1....................(wah)......................................  
eb|----------------------------------------------------------------|  
bb|----------------------------------------------------------------|  
gb|----------------------------------------------------------------|  
Db|----------------------------------------------------------------|  
Ab|-2-0-2-6-2-0-2-0-2-6-2-0-2-6-2-0-2-0-2-6-2-0-2-6-2-4-2-0-2~~~~~~|  
Eb|----------------------------------------------------------------|  
 
 
verse 1  
gtr2PM..............................................................  
eb|----------------------------------------------------------------|  
bb|----------------------------------------------------------------|  
gb|----------------------------------------------------------------|  
Db|----------------------------------------------------------------|  
Ab|12-0-9-0-0-0-0-0-7-0-0-0-7-0-7-6-----7-------7---6-------7---6-4|  
Eb|---------------------------------4-4---4-4-4---4---4-4-4---4----|  
 
gtr2PM.............................................................|  
eb|----------------------------------------------------------------:|  
bb|----------------------------------------------------------------:|  
gb|----------------------------------------------------------------:|  
Db|----------------------------------------------------------------:|  
Ab|-2-0-2-6-2-0-2-0-2-6-2-0-2-6-2-0-2-0-2-6-2-0-2-6-2-4-2-0-2-4-2-0:|  
Eb|----------------------------------------------------------------:|  
play 3 times,then..  
 
gtr2PM..............................................................  
eb|----------------------------------------------------------------|  
bb|----------------------------------------------------------------|  
gb|----------------------------------------------------------------|  
Db|----------------------------------------------------------------|  
Ab|12-0-9-0-0-0-0-0-7-0-0-0-7-0-7-6-----7-------7---6-------7---6-4|  
Eb|---------------------------------4-4---4-4-4---4---4-4-4---4----|  
 
gtr2       PM..|       PM..|               PM..|       PM..|  
eb|----------------------------------------------------------------|  
bb|----------------------------------------------------------------|  
gb|-4-----------4-----4-------------4-----------4------------------|  
Db|-4-----4-----4-----4-------------4-----4-----4-----4------------|  
Ab|-2-----2-2-2-2-----2-2-2-2h4p2p0-2-----2-2-2-2-----2-2-2-2h4p2p0|  
Eb|-2-----2-2-2-2-----2-2-2---------2-----2-2-2-2-----2-2-2--------|  
 
 
chorus  
gtr2       PM..|                           PM..|  
eb|-0-------------------------------0------------------------------|  
bb|-0-----------------------0-------0-----0-----0-----------0------|  
gb|-4-----4-----4-----4-4-4-4-------4-----4-----4-----------4------|  
Db|-2-----2-2-2-2-----2-2-2-2---2-2-4-----4-4-4-4-----4-4-4-4---4-4|  
Ab|-0-----0-0-0-0-----0-0-0-0---0-0-2-----2-2-2-2-----2-2-2-2---2-2|  
Eb|---------------------------------0-----0-0-0-0-----0-0-0-0---0-0|  
 
gtr2       PM..|       PM..|               PM..|       PM..|  
eb|----------------------------------------------------------------|  
bb|----------------------------------------------------------------|  
gb|-4-----------4-----4-------------4-----------4------------------|  
Db|-4-----4-----4-----4-------------4-----4-----4-----4------------|  
Ab|-2-----2-2-2-2-----2-2-2-2h4p2p0-2-----2-2-2-2-----2-2-2-2h4p2p0|  
Eb|-2-----2-2-2-2-----2-2-2---------2-----2-2-2-2-----2-2-2--------|  
 
gtr2       PM..|                           PM..|  
eb|-0-------------------------------0------------------------------|  
bb|-0-------------------------------0-----0-----0-----------0------|  
gb|-4-----4-----4--------420--------4-----4-----4-----------4------|  
Db|-2-----2-2-2-2-----------420-----4-----4-4-4-4-----4-4-4-4---4-4|  
Ab|-0-----0-0-0-0---------------4-0-2-----2-2-2-2-----2-2-2-2---2-2|  
Eb|---------------------------------0-----0-0-0-0-----0-0-0-0---0-0|  
 
gtr2       PM..|       PM..|               PM..|       PM..|  
eb|----------------------------------------------------------------|  
bb|----------------------------------------------------------------|  
gb|-4-----------4-----4-------------4-----------4------------------|  
Db|-4-----4-----4-----4-------------4-----4-----4-----4------------|  
Ab|-2-----2-2-2-2-----2-2-2-2h4p2p0-2-----2-2-2-2-----2-2-2-2h4p2p0|  
Eb|-2-----2-2-2-2-----2-2-2---------2-----2-2-2-2-----2-2-2--------|  
 
gtr2       PM..|                           PM..|  
eb|-0-------------------------------0------------------------------|  
bb|-0-----------------------0-------0-----0-----0-----------0------|  
gb|-4-----4-----4-----4-4-4-4-------4-----4-----4-----------4------|  
Db|-2-----2-2-2-2-----2-2-2-2---2-2-4-----4-4-4-4-----4-4-4-4---4-4|  
Ab|-0-----0-0-0-0-----0-0-0-0---0-0-2-----2-2-2-2-----2-2-2-2---2-2|  
Eb|---------------------------------0-----0-0-0-0-----0-0-0-0---0-0|  
 
gtr2       PM..|       PM..|               PM..|       PM..|  
eb|----------------------------------------------------------------|  
bb|----------------------------------------------------------------|  
gb|-4-----------4-----4-------------4-----------4------------------|  
Db|-4-----4-----4-----4-------------4-----4-----4-----4------------|  
Ab|-2-----2-2-2-2-----2-2-2-2h4p2p0-2-----2-2-2-2-----2-2-2-2h4p2p0|  
Eb|-2-----2-2-2-2-----2-2-2---------2-----2-2-2-2-----2-2-2--------|  
 
gtr2  
eb|----------------------------------------------------------------|  
bb|----------------------------------------------------------------|  
gb|----------------------------------------------------------------|  
Db|-11----11----11-------12----11-7--------------------------------|  
Ab|-0-----0-----0--------0-----0--0-11----11----11-------12----11-7|  
Eb|---------------------------------0-----0-----0--------0-----0--0|  
 
gtr2       PM..|       PM..|               PM..|       PM..|  
eb|----------------------------------------------------------------|  
bb|----------------------------------------------------------------|  
gb|-4-----------4-----4-------------4-----------4------------------|  
Db|-4-----4-----4-----4-------------4-----4-----4-----4------------|  
Ab|-2-----2-2-2-2-----2-2-2-2h4p2p0-2-----2-2-2-2-----2-2-2-2h4p2p0|  
Eb|-2-----2-2-2-2-----2-2-2---------2-----2-2-2-2-----2-2-2--------|  
 
preverse 2  
gtr1  
eb|-4h5-2h4h5-2h4h5-----5-----5------------------------------------|  
bb|-----------------5h7---5h7---5\4-----5-5---5-------------5---4p2|  
gb|----------------------------------------------------------------|  
Db|---------------------------------6-------6----------------------|  
Ab|----------------------------------------------------------------|  
Eb|----------------------------------------------------------------|  
 
gtr1  
eb|----------------------------------------------------------------|  
bb|-----0h4---------0h4-----0h4---------0h4---------0h4-----0h4----|  
gb|-4p2-----4p2h4p2-----4p2-----4p2-4p2-----4p2h4p2-----4p2-----4p2|  
Db|----------------------------------------------------------------|  
Ab|----------------------------------------------------------------|  
Eb|----------------------------------------------------------------|  
 
gtr1  
eb|-4h5-2h4h5-2h4h5-----5-----5------------------------------------|  
bb|-----------------5h7---5h7---5\4-----5-5---5-------------5---4p2|  
gb|----------------------------------------------------------------|  
Db|---------------------------------6-------6----------------------|  
Ab|----------------------------------------------------------------|  
Eb|----------------------------------------------------------------|  
 
gtr1  
eb|----------------------------------------------------------------|  
bb|-----0h4---------0h4-----0h4---------0h4---------0h4-----4-\----|  
gb|-4p2-----4p2h4p2-----4p2-----4p2-4p2-----4p2h4p2-----4p2--------|  
Db|----------------------------------------------------------------|  
Ab|----------------------------------------------------------------|  
Eb|----------------------------------------------------------------|  
 
verse 2  
gtr2PM..............................................................  
eb|----------------------------------------------------------------|  
bb|----------------------------------------------------------------|  
gb|----------------------------------------------------------------|  
Db|----------------------------------------------------------------|  
Ab|12-0-9-0-0-0-0-0-7-0-0-0-7-0-7-6-----7-------7---6-------7---6-4|  
Eb|---------------------------------4-4---4-4-4---4---4-4-4---4----|  
 
gtr2PM.............................................................|  
eb|----------------------------------------------------------------:|  
bb|----------------------------------------------------------------:|  
gb|----------------------------------------------------------------:|  
Db|----------------------------------------------------------------:|  
Ab|-2-0-2-6-2-0-2-0-2-6-2-0-2-6-2-0-2-0-2-6-2-0-2-6-2-4-2-0-2-4-2-0:|  
Eb|----------------------------------------------------------------:|  
play 3 times,then..  
 
gtr2PM..............................................................  
eb|----------------------------------------------------------------|  
bb|----------------------------------------------------------------|  
gb|----------------------------------------------------------------|  
Db|----------------------------------------------------------------|  
Ab|12-0-9-0-0-0-0-0-7-0-0-0-7-0-7-6-----7-------7---6-------7---6-4|  
Eb|---------------------------------4-4---4-4-4---4---4-4-4---4----|  
 
gtr2       PM..|       PM..|               PM..|       PM..|  
eb|----------------------------------------------------------------|  
bb|----------------------------------------------------------------|  
gb|-4-----------4-----4-------------4-----------4------------------|  
Db|-4-----4-----4-----4-------------4-----4-----4-----4------------|  
Ab|-2-----2-2-2-2-----2-2-2-2h4p2p0-2-----2-2-2-2-----2-2-2-2h4p2p0|  
Eb|-2-----2-2-2-2-----2-2-2---------2-----2-2-2-2-----2-2-2--------|  
 
 
chorus  
gtr2       PM..|                           PM..|  
eb|-0-------------------------------0------------------------------|  
bb|-0-----------------------0-------0-----0-----0-----------0------|  
gb|-4-----4-----4-----4-4-4-4-------4-----4-----4-----------4------|  
Db|-2-----2-2-2-2-----2-2-2-2---2-2-4-----4-4-4-4-----4-4-4-4---4-4|  
Ab|-0-----0-0-0-0-----0-0-0-0---0-0-2-----2-2-2-2-----2-2-2-2---2-2|  
Eb|---------------------------------0-----0-0-0-0-----0-0-0-0---0-0|  
 
gtr2       PM..|       PM..|               PM..|       PM..|  
eb|----------------------------------------------------------------|  
bb|----------------------------------------------------------------|  
gb|-4-----------4-----4-------------4-----------4------------------|  
Db|-4-----4-----4-----4-------------4-----4-----4-----4------------|  
Ab|-2-----2-2-2-2-----2-2-2-2h4p2p0-2-----2-2-2-2-----2-2-2-2h4p2p0|  
Eb|-2-----2-2-2-2-----2-2-2---------2-----2-2-2-2-----2-2-2--------|  
 
gtr2       PM..|                           PM..|  
eb|-0-------------------------------0------------------------------|  
bb|-0-------------------------------0-----0-----0-----------0------|  
gb|-4-----4-----4--------420--------4-----4-----4-----------4------|  
Db|-2-----2-2-2-2-----------420-----4-----4-4-4-4-----4-4-4-4---4-4|  
Ab|-0-----0-0-0-0---------------4-0-2-----2-2-2-2-----2-2-2-2---2-2|  
Eb|---------------------------------0-----0-0-0-0-----0-0-0-0---0-0|  
 
gtr2       PM..|       PM..|               PM..|       PM..|  
eb|----------------------------------------------------------------|  
bb|----------------------------------------------------------------|  
gb|-4-----------4-----4-------------4-----------4------------------|  
Db|-4-----4-----4-----4-------------4-----4-----4-----4------------|  
Ab|-2-----2-2-2-2-----2-2-2-2h4p2p0-2-----2-2-2-2-----2-2-2-2h4p2p0|  
Eb|-2-----2-2-2-2-----2-2-2---------2-----2-2-2-2-----2-2-2--------|  
 
gtr2       PM..|                           PM..|  
eb|-0-------------------------------0------------------------------|  
bb|-0-----------------------0-------0-----0-----0-----------0------|  
gb|-4-----4-----4-----4-4-4-4-------4-----4-----4-----------4------|  
Db|-2-----2-2-2-2-----2-2-2-2---2-2-4-----4-4-4-4-----4-4-4-4---4-4|  
Ab|-0-----0-0-0-0-----0-0-0-0---0-0-2-----2-2-2-2-----2-2-2-2---2-2|  
Eb|---------------------------------0-----0-0-0-0-----0-0-0-0---0-0|  
 
gtr2       PM..|       PM..|               PM..|       PM..|  
eb|----------------------------------------------------------------|  
bb|----------------------------------------------------------------|  
gb|-4-----------4-----4-------------4-----------4------------------|  
Db|-4-----4-----4-----4-------------4-----4-----4-----4------------|  
Ab|-2-----2-2-2-2-----2-2-2-2h4p2p0-2-----2-2-2-2-----2-2-2-2h4p2p0|  
Eb|-2-----2-2-2-2-----2-2-2---------2-----2-2-2-2-----2-2-2--------|  
 
gtr2  
eb|----------------------------------------------------------------|  
bb|----------------------------------------------------------------|  
gb|----------------------------------------------------------------|  
Db|-11----11----11-------12----11-7--------------------------------|  
Ab|-0-----0-----0--------0-----0--0-11----11----11-------12----11-7|  
Eb|---------------------------------0-----0-----0--------0-----0--0|  
 
gtr2       PM..|       PM..|               PM..|       PM..|  
eb|----------------------------------------------------------------|  
bb|----------------------------------------------------------------|  
gb|-4-----------4-----4-------------4-----------4------------------|  
Db|-4-----4-----4-----4-------------4-----4-----4-----4------------|  
Ab|-2-----2-2-2-2-----2-2-2-2h4p2p0-2-----2-2-2-2-----2-2-2-2h4p2p0|  
Eb|-2-----2-2-2-2-----2-2-2---------2-----2-2-2-2-----2-2-2--------|  
 
solo  
gtr1  
eb|------------------------------------------------------------------------|  
bb|0h12h1612h1612p0h12------------12h14-0h12h1612h1612p0h12----------------|  
gb|-------------------1413141314h16------------------------1413141314b16~~~|  
Db|------------------------------------------------------------------------|  
Ab|------------------------------------------------------------------------|  
Eb|------------------------------------------------------------------------|  
gtr2       PM..|                           PM..|  
eb|-0-------------------------------0------------------------------|  
bb|-0-----------------------0-------0-----0-----0-----------0------|  
gb|-4-----4-----4-----4-4-4-4-------4-----4-----4-----------4------|  
Db|-2-----2-2-2-2-----2-2-2-2---2-2-4-----4-4-4-4-----4-4-4-4---4-4|  
Ab|-0-----0-0-0-0-----0-0-0-0---0-0-2-----2-2-2-2-----2-2-2-2---2-2|  
Eb|---------------------------------0-----0-0-0-0-----0-0-0-0---0-0|  
 
 
gtr1  
eb|------------------------------------------------------------------------|  
bb|0h12h1612h1612p0h12------------12h14-0h12h1612h1612p0h12----------------|  
gb|-------------------1413141314h16------------------------1413141314b16~~~|  
Db|------------------------------------------------------------------------|  
Ab|------------------------------------------------------------------------|  
Eb|------------------------------------------------------------------------|  
gtr2       PM..|                           PM..|  
eb|----------------------------------------------------------------|  
bb|----------------------------------------------------------------|  
gb|-4-----------4-----4-----4-------4-----------4-----------4------|  
Db|-4-----4-----4-----4-----4---4-4-4-----4-----4-----4-----4---4-4|  
Ab|-2-----2-2-2-2-----2-2-2-2---2-2-2-----2-2-2-2-----2-2-2-2---2-2|  
Eb|-2-----2-2-2-2-----2-2-2-2---2-2-2-----2-2-2-2-----2-2-2-2---2-2|  
 
 
gtr1  
eb|--------------------------------141414-----------------------------------|  
bb|0h12h1612h1612p0h12h1712h1712p012----12p0h12h1712h1712p0h12h1612h1612p0h12  
gb|-------------------------------------------------------------------------|  
Db|-------------------------------------------------------------------------|  
Ab|-------------------------------------------------------------------------|  
Eb|-------------------------------------------------------------------------|  
gtr2       PM..|                           PM..|  
eb|-0-------------------------------0------------------------------|  
bb|-0-----------------------0-------0-----0-----0-----------0------|  
gb|-4-----4-----4-----4-4-4-4-------4-----4-----4-----------4------|  
Db|-2-----2-2-2-2-----2-2-2-2---2-2-4-----4-4-4-4-----4-4-4-4---4-4|  
Ab|-0-----0-0-0-0-----0-0-0-0---0-0-2-----2-2-2-2-----2-2-2-2---2-2|  
Eb|---------------------------------0-----0-0-0-0-----0-0-0-0---0-0|  
 
 
gtr1  
eb|---1419141914--1419141914--141914--1419141914-------------------|  
bb|-16----------16----------16------16----------16h19--16-19~~~~~~~|  
gb|----------------------------------------------------------------|  
Db|----------------------------------------------------------------|  
Ab|----------------------------------------------------------------|  
Eb|----------------------------------------------------------------|  
gtr2       PM..|                           PM..|  
eb|----------------------------------------------------------------|  
bb|----------------------------------------------------------------|  
gb|-4-----------4-----4-----4-------4-----------4-----------4------|  
Db|-4-----4-----4-----4-----4---4-4-4-----4-----4-----4-----4---4-4|  
Ab|-2-----2-2-2-2-----2-2-2-2---2-2-2-----2-2-2-2-----2-2-2-2---2-2|  
Eb|-2-----2-2-2-2-----2-2-2-2---2-2-2-----2-2-2-2-----2-2-2-2---2-2|  
 
gtr1                                  wah...(for gtr 1).............  
eb|----------------------------------------------------------------|  
bb|-19~~~~~~~~~~~~~~~~~~-16-------~~~~~~~~~~~~~~~~~~~~~~~~~~~~~~---|  
gb|----------------------------------------------------------------|  
Db|----------------------------------------------------------------|  
Ab|----------------------------------------------------------------|  
Eb|----------------------------------------------------------------|  
gtr2  
eb|----------------------------------------------------------------|  
bb|----------------------------------------------------------------|  
gb|----------------------------------------------------------------|  
Db|-11----11----11-------12----11-7--------------------------------|  
Ab|-0-----0-----0--------0-----0--0-11----11----11-------12----11-7|  
Eb|---------------------------------0-----0-----0--------0-----0--0|  
 
gtr1..(wah for gtr1)..............................................  
eb|----------------------------------------------------------------|  
bb|(16)~~~~~~~~~~~~~~~~~~~~~~~~~~~~~~~~~~~~~~~~~~~~~~~~~~~~~~~~~~--|  
gb|----------------------------------------------------------------|  
Db|----------------------------------------------------------------|  
Ab|----------------------------------------------------------------|  
Eb|----------------------------------------------------------------|  
gtr2       PM..|       PM..|               PM..|       PM..|  
eb|----------------------------------------------------------------|  
bb|----------------------------------------------------------------|  
gb|-4-----------4-----4-------------4-----------4------------------|  
Db|-4-----4-----4-----4-------------4-----4-----4-----4------------|  
Ab|-2-----2-2-2-2-----2-2-2-2h4p2p0-2-----2-2-2-2-----2-2-2-2h4p2p0|  
Eb|-2-----2-2-2-2-----2-2-2---------2-----2-2-2-2-----2-2-2--------|  
 
gtr2  
eb|----------------------------------------------------------------|  
bb|----------------------------------------------------------------|  
gb|----------------------------------------------------------------|  
Db|-11----11----11-------12----11-7--------------------------------|  
Ab|-0-----0-----0--------0-----0--0-11----11----11-------12----11-7|  
Eb|---------------------------------0-----0-----0--------0-----0--0|  
 
gtr2       PM..|       PM..|               PM..|       PM..|  
eb|----------------------------------------------------------------|  
bb|----------------------------------------------------------------|  
gb|-4-----------4-----4-------------4-----------4------------------|  
Db|-4-----4-----4-----4-------------4-----4-----4-----4------------|  
Ab|-2-----2-2-2-2-----2-2-2-2h4p2p0-2-----2-2-2-2-----2-2-2-2h4p2p0|  
Eb|-2-----2-2-2-2-----2-2-2---------2-----2-2-2-2-----2-2-2--------|  
 
gtr2  
eb|----------------------------------------------------------------|  
bb|----------------------10~~~~~~~---------------------------------|  
gb|----------------------------------------------------------------|  
Db|-11----11----11-------------11-7--------------------------------|  
Ab|-0-----0-----0--------------0--0-11----11----11-------12----11-7|  
Eb|---------------------------------0-----0-----0--------0-----0--0|  
 
gtr2       PM..|       PM..|               PM..|       PM..|  
eb|----------------------------------------------------------------|  
bb|----------------------------------------------------------------|  
gb|-4-----------4-----4-------------4-----------4------------------|  
Db|-4-----4-----4-----4-------------4-----4-----4-----4------------|  
Ab|-2-----2-2-2-2-----2-2-2-2h4p2p0-2-----2-2-2-2-----2-2-2-2h4p2p0|  
Eb|-2-----2-2-2-2-----2-2-2---------2-----2-2-2-2-----2-2-2--------|  
 
gtr2  
eb|----------------------------------------------------------------|  
bb|----------------------------------------------------------------|  
gb|----------------------------------------------------------------|  
Db|-11----11----11-------12----11-7--------------------------------|  
Ab|-0-----0-----0--------0-----0--0-11----11----11-------12----11-7|  
Eb|---------------------------------0-----0-----0--------0-----0--0|  
 
gtr2       PM..|       PM..|               PM..|       PM..|  
eb|----------------------------------------------------------------|  
bb|----------------------------------------------------------------|  
gb|-4-----------4-----4-------------4-----------4------------------|  
Db|-4-----4-----4-----4-------------4-----4-----4-----4------------|  
Ab|-2-----2-2-2-2-----2-2-2-2h4p2p0-2-----2-2-2-2-----2-2-2-2h4p2p0|  
Eb|-2-----2-2-2-2-----2-2-2---------2-----2-2-2-2-----2-2-2--------|  
 
 
last chorus  
gtr2       PM..|                           PM..|  
eb|-0-------------------------------0------------------------------|  
bb|-0-----------------------0-------0-----0-----0-----------0------|  
gb|-4-----4-----4-----4-4-4-4-------4-----4-----4-----------4------|  
Db|-2-----2-2-2-2-----2-2-2-2---2-2-4-----4-4-4-4-----4-4-4-4---4-4|  
Ab|-0-----0-0-0-0-----0-0-0-0---0-0-2-----2-2-2-2-----2-2-2-2---2-2|  
Eb|---------------------------------0-----0-0-0-0-----0-0-0-0---0-0|  
 
gtr2       PM..|       PM..|               PM..|       PM..|  
eb|----------------------------------------------------------------|  
bb|----------------------------------------------------------------|  
gb|-4-----------4-----4-------------4-----------4------------------|  
Db|-4-----4-----4-----4-------------4-----4-----4-----4------------|  
Ab|-2-----2-2-2-2-----2-2-2-2h4p2p0-2-----2-2-2-2-----2-2-2-2h4p2p0|  
Eb|-2-----2-2-2-2-----2-2-2---------2-----2-2-2-2-----2-2-2--------|  
 
gtr2       PM..|                           PM..|  
eb|-0-------------------------------0------------------------------|  
bb|-0-----------------------0-------0-----0-----0-----------0------|  
gb|-4-----4-----4-----4-4-4-4-------4-----4-----4-----------4------|  
Db|-2-----2-2-2-2-----2-2-2-2---2-2-4-----4-4-4-4-----4-4-4-4---4-4|  
Ab|-0-----0-0-0-0-----0-0-0-0---0-0-2-----2-2-2-2-----2-2-2-2---2-2|  
Eb|---------------------------------0-----0-0-0-0-----0-0-0-0---0-0|  
 
gtr2       PM..|       PM..|               PM..|       PM..|  
eb|----------------------------------------------------------------|  
bb|----------------------------------------------------------------|  
gb|-4-----------4-----4-------------4-----------4------------------|  
Db|-4-----4-----4-----4-------------4-----4-----4-----4------------|  
Ab|-2-----2-2-2-2-----2-2-2-2h4p2p0-2-----2-2-2-2-----2-2-2-2h4p2p0|  
Eb|-2-----2-2-2-2-----2-2-2---------2-----2-2-2-2-----2-2-2--------|  
 
gtr2       PM..|                           PM..|  
eb|-0-------------------------------0------------------------------|  
bb|-0-------------------------------0-----0-----0-----------0------|  
gb|-4-----4-----4--------420--------4-----4-----4-----------4------|  
Db|-2-----2-2-2-2-----------420-----4-----4-4-4-4-----4-4-4-4---4-4|  
Ab|-0-----0-0-0-0---------------4-0-2-----2-2-2-2-----2-2-2-2---2-2|  
Eb|---------------------------------0-----0-0-0-0-----0-0-0-0---0-0|  
 
gtr2       PM..|       PM..|               PM..|       PM..|  
eb|----------------------------------------------------------------|  
bb|----------------------------------------------------------------|  
gb|-4-----------4-----4-------------4-----------4------------------|  
Db|-4-----4-----4-----4-------------4-----4-----4-----4------------|  
Ab|-2-----2-2-2-2-----2-2-2-2h4p2p0-2-----2-2-2-2-----2-2-2-2h4p2p0|  
Eb|-2-----2-2-2-2-----2-2-2---------2-----2-2-2-2-----2-2-2--------|  
 
gtr2  
eb|----------------------------------------------------------------|  
bb|----------------------------------------------------------------|  
gb|----------------------------------------------------------------|  
Db|-11----11----11-------12----11-7--------------------------------|  
Ab|-0-----0-----0--------0-----0--0-11----11----11-------12----11-7|  
Eb|---------------------------------0-----0-----0--------0-----0--0|  
 
gtr2       PM..|       PM..|               PM..|       PM..|  
eb|----------------------------------------------------------------|  
bb|----------------------------------------------------------------|  
gb|-4-----------4-----4-------------4-----------4------------------|  
Db|-4-----4-----4-----4-------------4-----4-----4-----4------------|  
Ab|-2-----2-2-2-2-----2-2-2-2h4p2p0-2-----2-2-2-2-----2-2-2-2h4p2p0|  
Eb|-2-----2-2-2-2-----2-2-2---------2-----2-2-2-2-----2-2-2--------|  
 
gtr2  
eb|----------------------------------------------------------------|  
bb|-------------------------10~~~~~~~------------------------------|  
gb|----------------------------------------------------------------|  
Db|-11----11----11-------12----------------------------------------|  
Ab|-0-----0-----0--------0----------11----11----11-------12----11-7|  
Eb|---------------------------------0-----0-----0--------0-----0--0|  
 
gtr2  
eb|-----------------------|  
bb|-0---------------------|  
gb|-4---------------------|  
Db|-4---------------------|  
Ab|-2---------------------|  
Eb|-2---------------------|  
 
 
 
| /  slide up  
| \  slide down  
| h  hammer-on  
| p  pull-off  
| ~  vibrato  
| * harmonic  
| PS pick scratch  
| PM  Mute note  
| PH pinch harmonic  
 
 
_______________________________________________________ 
Contribuição: Dudlei Dangio Landim([email protected]) 

		  

See also:

tabs Simon & Garfunkel - Sounds of silence tabs The Strokes - Juicebox tabs John Mayer - Belief tabs Guns N' Roses - Sweet Child o' mine tabs Guns N' Roses - November Rain tabs Foo Fighters - Everlong (acústico)
e-chords

Other versions:

tabs Alter Bridge - One Day Remains
auto scroll beats size up size down change color hide chords drawings
tab show chords e-chords YouTube Clip e-chords hide all tabs e-chords go to top tab

share