Alter Bridge

My Champion

Alter Bridge

tabs

by  JOV-CORREA

save to print version add songbook text version e-mail correct tuner
chordsukulelecavacokeyboardtabbassdrumsharmonicaflute Guitar Pro
close

there isn't a video lesson for this song

chords

My Champion

	  		Intro 

D#|---------------------------------|     |-------------------------------------------| 
A#|-13-----12-----10-----8-----3----|     |-13------12-----10-----8-----3-----5-----3-|(x2) 
F#|-12(x4)-12(x5)-12(x4)-9(x2)-0(x3)|(x1) |-12-(x4)-12(x5)-12(x4)-9(x2)-0(x2)-0(x2)-0-| 
C#|---------------------------------|     |-------------------------------------------| 
G#|---------------------------------|     |-------------------------------------------| 
D#|---------------------------------|     |-------------------------------------------| 
On the 4th time do: 
D#|---------------------------------------------------------------------------| 
A#|-13-----12-----10-----8-----3-----5----------------------------------------| 
F#|-12(x4)-12(x5)-12(x4)-9(x2)-0(x3)-0(x10)-----------------------------------| 
C#|---------------------------------------------------------------------------| 
G#|---------------------------------------------------------------------------| 
D#|---------------------------------------------------------------------------| 

Then 2nd guitar comes in with: 
D#|-----------| 
A#|-----------| 
F#|-5-5-------| 
C#|-5-5-------| 
G#|-3-3-------| 
D#|-----------| 

Tried my best with this part! Quite difficult to figure out! 
D#|------------------------------------------------------|          D#|---------| 
A#|------------------------------------------------------|          A#|---------| 
F#|-9-9-7-7---7~-----------------------------------------|          F#|-12/11/9-|(Along with this part) 
C#|--------9-7-9-7-5-7-5h7-5h7~--5h7p5-------5-----------|          C#|---------| 
G#|-----------------------------------7p5----5-----------|          G#|-10/9/-7-| 
D#|--------------------------------------7p5-3(let ring)-|          D#|---------| 
Basically repeat again however after the hammer on's go: 
D#|-----------------| 
A#|-----------------| 
F#|-----------------| 
C#|-5h7p5p4-------5-| 
G#|--------7p5----5-| 
D#|-----------7p5-3-| 


Verse  

Not so sure on the picking parts! Also quite difficult to hear: 

D#|--------3~--------------------------3~----| D#|-------------| 
A#|--------3~--------------------------3~----| A#|-8-8/10/12-12|(After second G chord) 
F#|-5~-----0~--------0---0-------------0~----| F#|-------------| 
C#|-5~-----0~-------------10~----------0~----| C#|-------------| 
G#|-3~-----2~------10--10-10~--10-10-2-2~----| G#|-------------| 
D#|--------3~(x2)-8---7---8~--8--7--5--3~----| D#|-------------| 


Pre-Chorus  

There's a high note in there but can't figure it out atm 
D#|----------------------------------| 
A#|----------------------------------| 
F#|----------------------------------| 
C#|-5-----7-9-----11-12--------------| 
G#|-3(x5)-5-7(x5)-9--10(x6)12--------| 
D#|------------------------10(x10)---| 


Chorus 

D#|---------------------------------------------------------------| 
A#|---------------------------------------------------------------| 
F#|-5------------5----------5----------5------7-------------------| 
C#|-5-----5------5----2-----5-----5----5-5----7-------------------| 
G#|-3(x3)-5------3(x3)2-----3(x10)5----3-5----5(x15)--------------| 
D#|-------3(x15)------0(x10)------3(x6)--3(x6)--------------------| 


Bridge 

D#|------------------------------------| 
A#|------------------------------------| 
F#|-4-----5-----4------2------4----5---| 
C#|-4-----5-----4------2------4----3---|Don't trust me with the actual number of times to play the note(s) 
G#|-2(x8)-3(x8)-2(x10)-0(x10)-2(x8)3---|Just a guess really  most likely will not be accurate 
D#|------------------------------------| 

Solo rhythm 

D#|--------------------|     D#|--------------------| 
A#|--------------------|     A#|--------------------| 
F#|--------------------|     F#|-------------7------| 
C#|-3-----2-----5------|     C#|-3-----2-----7------|(End on this) 
G#|-3-----2-----5------|     G#|-3-----2-----5(x15)-| 
D#|-1(x8)-0(x8)-3(x20)-|(x3) D#|-1(x8)-0(x8)--------| 

Outro 

D#|--------------|     D#|--------------------| 
A#|--------------|     A#|--------------------| 
F#|-5------------|     F#|----5~--------------| 
C#|-5-----5------|     C#|-3~-5~-5~-----------|(Not so sure about the second chord) 
G#|-3(x15)5------|     G#|-3~-3~-5~-----------| 
D#|-------3(x15)-|(x2) D#|-1~----3~(let ring)-| 


And that's what I have so far! Will edit if I figure some stuff out, or if you figure them out yourself, would 
greatly appreciate a suggestion or correction! 
May not be the most accurate tab ever done, but really wanted to do this as 
soon as possible! :D 

************************************ 

| h  Hammer-on 
| p  Pull-off 
| /  Slide up 
| ~  Vibrato 

************************************ 
		  

See also:

tabs Simon & Garfunkel - Sounds of silence tabs The Strokes - Juicebox tabs John Mayer - Belief tabs Guns N' Roses - Sweet Child o' mine tabs Guns N' Roses - November Rain tabs Foo Fighters - Everlong (acústico)
e-chords

Other versions:

tabs Alter Bridge - My Champion
auto scroll beats size up size down change color hide chords drawings
tab show chords e-chords YouTube Clip e-chords hide all tabs e-chords go to top tab

share