Alter Bridge

I Know It Hurts

Alter Bridge

tabs

by  CARLLUZ

save to print version add songbook text version e-mail correct tuner
chordsukulelecavacokeyboardtabbassdrumsharmonicaflute Guitar Pro
close

there isn't a video lesson for this song

chords

I Know It Hurts

	  		
Intro: 
 
E|-----------------------------------------------| 
B|-----------------------------------------------| 
G|----14/16-16-16-16-16--17/16---------14/16-----|  (2x) 
D|-----------------------------------------------| 
A|----12/14-14-14-14-14--15/14---------12/14-----| 
B|-------------------------------0--0---------0--| 
 

 
E|-----------------------------------|---------------------------------| 
B|------------------------------10---|---------------------------------| 
G|------------------------------12b14|---------------------------------| 
D|-----------------------------------|---------------------------------| 
A|---4/5-5-5-5-5--7/5--5-5-----------|----4/5-5-5-5-5--7/5--5-5------9-| 
B|---2/3-3-3-3-3--5/3--3-3-----------|----2/3-3-3-3-3--5/3--3-3------7-| 
 

 
E|-----------------------------------------------| 
B|-----------------------------------------------| 
G|----14/16-16-16-16-16--17/16---------14/16-----|  (2x) 
D|-----------------------------------------------| 
A|----12/14-14-14-14-14--15/14---------12/14-----| 
B|-------------------------------0--0---------0--| 
 

 
E|-----------------------------------|-------------------------------| 
B|------------------------------10---|-------------------------------| 
G|------------------------------12b14|-------------------------------| 
D|-----------------------------------|-------------------------------| 
A|---4/5-5-5-5-5--7/5--5-5-----------|----4/5-5-5-5------------------| 
B|---2/3-3-3-3-3--5/3--3-3-----------|----2/3-3-3-3---5b7------------| 
 

Verso: 
 
E|-----------------(0)----------------(0)--| 
B|-----------------------------------------| 
G|------------------9~-----------------9~--| 
D|------11---12-9----------11---12-9-------| 
A|----9----9-----9-------9----9-----9------| 
B|--0------------------0-------------------| 
 

 
E|---------------(0)----------------(0)--| 
B|------7------------------7-------------| 
G|----------9-7---9~-----------9-7---9~--| 
D|----7---7----7---------7---7----7------| 
A|--5------------------5-----------------| 
B|---------------------------------------| 
 

 
E|-------------------------------------------| 
B|----------5--------------------------------| 
G|------6----6--6~---------12---12--12h14-12-| 
D|----7---7---7---------12----12-------------| 
A|--0----------------10----------------------| 
B|-------------------------------------------| 
 

 
E|-------------------------------------------| 
B|-------------------------------------------| 
G|------------------9~---------------------9~| 
D|------11---12-9--------------11---12-9-----| 
A|----9----9-----9-----------9----9-----9----| 
E|--0----------------------0-----------------| 
 

 
E|------------------------------------------| 
B|----------5-------------------------------| 
G|------6----6--6~-------12-----------------| 
D|----7---7---7----------12-----------------| 
A|--0--------------------10-----------------| 
B|------------------------------------------| 
 

Refrão: 
 
E|------------------------------------------------------------------| 
B|------------------------------------------------------------------| 
G|--4--4--4-4-4--4--4-4------12--12--12-12-12--12-12-12-------------| 
D|--4--4--4-4-4--4--4-4------12--12--12-12-12--12-12-12-------------| 
A|--2--2--2-2-2--2--2-2------10--10--10-10-10--10-10-10-------------| 
B|--0--0--0-0-0--0--0-0---------------------------------------------| 
 

 
E|-----------------------------------|---------------------------------| 
B|------------------------------10---|---------------------------------| 
G|------------------------------12b14|---------------------------------| 
D|-----------------------------------|---------------------------------| 
A|---4/5-5-5-5-5--7/5--5-5-----------|----4/5-5-5-5-5--7/5--5-5------9-| 
B|---2/3-3-3-3-3--5/3--3-3-----------|----2/3-3-3-3-3--5/3--3-3------7-| 
 

 
E|------------------------------------------------------------------| 
B|------------------------------------------------------------------| 
G|--4--4--4-4-4--4--4-4------12--12--12-12-12--12-12-12-------------| 
D|--4--4--4-4-4--4--4-4------12--12--12-12-12--12-12-12-------------| 
A|--2--2--2-2-2--2--2-2------10--10--10-10-10--10-10-10-------------| 
B|--0--0--0-0-0--0--0-0---------------------------------------------| 
 

 
E|-----------------------------------|-------------------------------| 
B|------------------------------10---|-------------------------------| 
G|------------------------------12b14|-------------------------------| 
D|-----------------------------------|-------------------------------| 
A|---4/5-5-5-5-5--7/5--5-5-----------|----4/5-5-5-5------------------| 
B|---2/3-3-3-3-3--5/3--3-3-----------|----2/3-3-3-3---5b7------------| 
 

 
E|------------------------------------------------------------------| 
B|-----------------------------------10-----------------------------| 
G|--------7-9-7--9b11b9b11------9b11----9b11b9----------------------| 
D|------9-----------------------------------------------------------| 
A|------------------------------------------------------------------| 
B|------------------------------------------------------------------| 
 

(Verso) 

(Refrão) 

 
E|-----------------------------------| 
B|-----------------------------------| 
G|-----------------------------------| 
D|-----------------------------------| 
A|---4/5-5-5-5-5--7/5----------------| 
B|---2/3-3-3-3-3--5/3--0-0-----------| 
 

Ponte: 
 
E|------------------------------------------| 
B|-----5------------------------------------| 
G|-----5------------------------------------| 
D|-----x------------------------------------| (4x) 
A|-----3-------------------2b3-2-0----------| 
B|----(0)--0-1-2-3-4-0-2-3------------------| 
 

 
E|------------|--------|-------|-------| 
B|------------|--------|-------|-------| 
G|------12----|---11---|---7---|---6---| 
D|------12----|---12---|---7---|---7---|  (2x) 
A|------10----|---9----|---5---|---4---| 
B|------------|--------|-------|-------| 
 

 
E|------------|---------| 
B|------------|---------| 
G|------12----|---11~---| 
D|------12----|---12~---| 
A|------10----|---9~----| 
B|------------|---------| 
 

 
E|------------------------------------|--|--------------------| 
B|------------------------------------|--|--------------------| 
G|------------------------------------|--|--------------------| 
D|------------------------------------|x3|--------------------| 
A|----0h2-2-2-2---3p2-----0h2---------|--|-0h2-2-2-2-3p2-2----| 
B|--------------------0-0-----0-------|--|--------------------| 
 

(Refrão) 

Solo: 
 
E|---19-17-19-17-14-----19-17-19-17-14----| 
B|----------------------------------------| 
G|----------------------------------------| 
D|----------------------------------------| 
A|----------------------------------------| 
B|----------------------------------------| 
 

 
E|-22-17-22-17-14-----19-17-19-17-14-----/15-----------| 
B|---------------------------------------/15-----------| 
G|-----------------------------------------------------| 
D|-----------------------------------------------------| 
A|-----------------------------------------------------| 
B|-----------------------------------------------------| 
 

 
E|---------------14--17-------------------------------------------------| 
B|------15-17b19--------17b19b17--15------------------------------------| 
G|--/16--------------------------------------------9/11--7--------------| 
D|-----------------------------------------7-9p7------------------------| 
A|--------------------------------------/9-------9----------------------| 
B|----------------------------------------------------------------------| 
 

 
E|---7/10---------7/5-----------------------------------------------| 
B|---------10/7--------7/5-----3p0-3-5--3~--------------------------| 
G|------------------------------------------------------------------| 
D|------------------------------------------------------------------| 
A|------------------------------------------------------------------| 
B|------------------------------------------------------------------| 
 

 
E|--------------------------------------14h15h17p15p14-| 
B|-----------------------------15h17h19----------------| 
G|--------------------14h16h18-------------------------| 
D|----------12h14h16-----------------------------------| 
A|-12h14h16--------------------------------------------| 
B|-----------------------------------------------------| 
 

 
E|-------------------------------------| 
B|--17p15p14-14h15h17p15p14------------| 
G|--------------------------16p14p12---| 
D|-------------------------------------| 
A|-------------------------------------| 
B|-------------------------------------| 
 

 
E|------------------------------------------------------------------| 
B|------------------------------------------------------------------| 
G|--16-14-12-11----------14-12-11-----------------------------------| 
D|---------------14-12------------14-12-11----11-12~----------------| 
A|-----------------------------------------12-----------------------| 
B|------------------------------------------------------------------| 
 

 
E|----------------17------------22b24-22-19h22p19---19~--| 
B|-------15-17b19----17b19-15---------------------22-----| 
G|---/16-------------------------------------------------| 
D|-------------------------------------------------------| 
A|-------------------------------------------------------| 
B|-------------------------------------------------------| 
 

 
E|---19/17---------------------| 
B|---------19/17-15------------| 
G|------------------14---------| 
D|-----------------------------| 
A|-----------------------------| 
B|-----------------------------| 
 

E|------------------------|------------------------------------------| 
B|------------------------|------------------------------------------| 
G|---4-4-4-4--4-4-4-4-----|-----4-4-4-4------------------------------| 
D|---4-4-4-4--4-4-4-4-----|-----4-4-4-4------------------------------| 
A|---2-2-2-2--2-2-2-2-----|-----2-2-2-2------------------------------| 
B|---0-0-0-0--0-0-0-0-----|-----0-0-0-0------0~----------------------| 
		  

See also:

tabs Simon & Garfunkel - Sounds of silence tabs The Strokes - Juicebox tabs John Mayer - Belief tabs Guns N' Roses - Sweet Child o' mine tabs Guns N' Roses - November Rain tabs Foo Fighters - Everlong (acústico)
e-chords

Other versions:

tabs Alter Bridge - I Know It Hurts
auto scroll beats size up size down change color hide chords drawings
tab show chords e-chords YouTube Clip e-chords hide all tabs e-chords go to top tab

share