Alter Bridge

home > Alter Bridge

find the real Tab

Alter Bridge

Difficulty: AdvancedAdvanced

tuner correct add songbook print version text version save to e-mail
chordsukulelecavacokeyboardtabbassdrumsharmonicsflute Guitar Pro
chords

find the real

  		 
afinição : Db Ab Db Gb Bb eb 
 
 
Intro 
----- 
eb|----------------------------------------------------------| 
Bb|----------------------------------------------------------| 
Gb|----------------------------------------------------------| 
Db|--------------------------------------------------3*~~----| 
Ab|-12\-0---5-4-3---------3-0-5--3-----------3---3-5---------| 
Db|-12\-0-0-------7-6~~-0-3-0-5----3~~-0-3-5---5-------------| 
                        PM.....                PM... 
 
eb|----------------------------------------------------------| 
Bb|----------------------------------------------------------| 
Gb|----------------------------------------------------------| 
Db|-----------------------------------------3-0-3------------| 
Ab|-0---5-4-3---------3-0-5--3-----0-3-5-3--3-0-3------------| 
Db|-0-0-------7-6~~-0-3-0-5----3~~-0-3-5-3--3-0-3--2*~~------| 
                    PM.....        PM..... 
Verse 0:15 
----- 
eb|----------------------------------------------------------| 
Bb|----------------------------------------------------------| 
Gb|----------------------------------------------------------| 
Db|--------------------------------------------3~~-----------| 
Ab|---5-4-3--------------3-------------3---3-5---------------| 
Db|-0-------7-6~~--0-3-5---5-3~~-0-3-5---5-------------------| 
      PM.....      PM.......     PM....... 
 
eb|----------------------------------------------------------| 
Bb|----------------------------------------------------------| 
Gb|----------------------------------------------------------| 
Db|----------------------------------------------------------| 
Ab|---5-4-3--------------3-------------3---3-5--5~~----------| 
Db|-0-------7-6~~--0-3-5---5-3~~-0-3-5---5-------------------| 
      PM.....      PM.......     PM........... 
 
eb|----------------------------------------------------------| 
Bb|----------------------------------------------------------| 
Gb|----------------------------------------------------------| 
Db|-----------------------------------------------3*~~-------| 
Ab|-0-0--5-4-3--------------3-------------3---3-5------------| 
Db|-0-0--------7-6~~--0-3-5---5-3~~-0-3-5---5----------------| 
                      PM.......     PM........... 
 
eb|----------------------------------------------------------| 
Bb|----------------------------------------------------------| 
Gb|----------------------------------------------------------| 
Db|----------------------------------------------------------| 
Ab|---5-4-3--------------3-------------3---3-5--5*~~---------| 
Db|-0-------7-6~~--0-3-5---5-3~~-0-3-5---5-------------------| 
                   PM.......     PM... 
Chorus 0:39 
------ 
eb|----------------------------------------------------------| 
Bb|--------------------------------------------------3--3-3--| 
Gb|--------------------------5--5--5--5--------------2--2-2--| 
Db|--8--8--8--8--3--3--3--3--5--5--5--5--5--5--5--5--0--0-0--| 
Ab|--8--8--8--8--3--3--3--3--3--3--3--3--5--5--5--5--0--0-0--| 
Db|--8--8--8--8--3--3--3--3--------------5--5--5--5--0--0-0--| 
 
(Lead) 
eb|----------------------------------------------------------| 
Bb|-13-------------------------------------------------------| 
Gb|-12^hb----10h12p10--------------10----12-10~~-------------| 
Db|-------------------12~~---10/12----12---------------------| 
Ab|----------------------------------------------------------| 
Eb|------------------------0---------------------------------| 
 
 
eb|----------------------------------------------------------| 
Bb|--------------------------------------------------3--3-3--| 
Gb|--------------------------5/7-7-7-7/9-------------2--2-2--| 
Db|--8--8--8--8--3--3--3--3--------------5--5--5--5--0--0-0--| 
Ab|--8--8--8--8--3--3--3--3--3/5-5-5-5/7-5--5--5--5--0--0-0--| 
Db|--8--8--8--8--3--3--3--3--------------5--5--5--5--0--0-0--| 
 
(Lead) 
eb|---------------------------------------------10-13^hb-----| 
Bb|-13------------------------------------10-13----13^hb-----| 
Gb|-12^hb-12^hb-10h12p10------------10h12--------------------| 
Db|----------------------12~~-10/12--------------------------| 
Ab|----------------------------------------------------------| 
Eb|----------------------------------------------------------| 
 
Intro riff  1:05 
---------- 
eb|----------------------------------------------------------| 
Bb|----------------------------------------------------------| 
Gb|----------------------------------------------------------| 
Db|-----------------------------------------------3*~~-------| 
Ab|--0---5-4-3---------3-0-5--3-----------3---3-5------------| 
Db|--0-0-------7-6~~-0-3-0-5----3~~-0-3-5---5----------------| 
 
 
eb|----------------------------------------------------------| 
Bb|----------------------------------------------------------| 
Gb|----------------------------------------------------------| 
Db|----------------------------------------------------------| 
Ab|-0---5-4-3---------3-0-5--3------------3---3-5--5*~~------| 
Db|-0-0-------7-6~~-0-3-0-5----3~~--0-3-5---5----------------| 
                             
Verse 2 1:17 
------- 
eb|----------------------------------------------------------| 
Bb|----------------------------------------------------------| 
Gb|----------------------------------------------------------| 
Db|--------------------------------------------3~~-----------| 
Ab|---5-4-3--------------3-------------3---3-5---------------| 
Db|-0-------7-6~~--0-3-5---5-3~~-0-3-5---5-------------------| 
      PM.....      PM.......     PM....... 
 
eb|----------------------------------------------------------| 
Bb|----------------------------------------------------------| 
Gb|----------------------------------------------------------| 
Db|----------------------------------------------------------| 
Ab|---5-4-3--------------3-------------3---3-5-3-5~~---------| 
Db|-0-------7-6~~--0-3-5---5-3~~-0-3-5---5-------------------| 
      PM.....      PM.......     PM........... 
 
eb|----------------------------------------------------------| 
Bb|----------------------------------------------------------| 
Gb|----------------------------------------------------------| 
Db|-----------------------------------------------3*~~-------| 
Ab|-0-0--5-4-3--------------3-------------3---3-5------------| 
Db|-0-0--------7-6~~--0-3-5---5-3~~-0-3-5---5----------------| 
                      PM.......     PM........... 
 
eb|----------------------------------------------------------| 
Bb|----------------------------------------------------------| 
Gb|----------------------------------------------------------| 
Db|----------------------------------------------------------| 
Ab|---5-4-3--------------3-------------3---3-5--5*~~---------| 
Db|-0-------7-6~~--0-3-5---5-3~~-0-3-5---5-------------------| 
                   PM.......     PM... 
Chorus #2 1:43 
-------------- 
eb|----------------------------------------------------------| 
Bb|--------------------------------------------------3--3-3--| 
Gb|--------------------------5--5--5--5--------------2--2-2--| 
Db|--8--8--8--8--3--3--3--3--5--5--5--5--5--5--5--5--0--0-0--| 
Ab|--8--8--8--8--3--3--3--3--3--3--3--3--5--5--5--5--0--0-0--| 
Db|--8--8--8--8--3--3--3--3--------------5--5--5--5--0--0-0--| 
 
(Lead) 
eb|----------------10h13p10----------------------------------------| 
Bb|-----------10h13--------13-----------------13----------13-------| 
Gb|------10h12---------------12~~10h12p10--10-12^hb-12r10-12^hb-12-| 
Db|-10/12--------------------------------12------------------------| 
Ab|----------------------------------------------------------------| 
Eb|----------------------------------------------------------------| 
                                              pre-bend 
 
eb|----------------------------------------------------------| 
Bb|--------------------------------------------------3--3-3--| 
Gb|--------------------------5/7-7-7-7/9-------------2--2-2--| 
Db|--8--8--8--8--3--3--3--3--------------5--5--5--5--0--0-0--| 
Ab|--8--8--8--8--3--3--3--3--3/5-5-5-5/7-5--5--5--5--0--0-0--| 
Db|--8--8--8--8--3--3--3--3--------------5--5--5--5--0--0-0--| 
 
(Lead) 
eb|----------------------------------------------------------| 
Bb|----------------------------------------------------------| 
Gb|----------------------------------------------------------| 
Db|----------------------8-10--------------------------------| 
Ab|-10^hb-8h10p8---------8-10-10^1/4-10^1/4-10^1/4-8h10p8----| 
Eb|-------------10~~-8h10--------------------------------10~~| 
 
Bridge 2:08 4x 
------ 
eb|----------------------------------------------------------| 
Bb|----------------------------------------------------------| 
Gb|----------------------------------------------------------| 
Db|----------------------------------------------------------| 
Ab|-0----------0-------------3^---------------------------0^-| 
Db|-0--7-6-5-3-0---7-6-5-3-0-3^--7-6-5-3-0-5---0--7-6-5-3-0^-| 
                        whammy^1/4                        w^1/4 
 
eb|----------------------------------------------------------| 
Bb|----------------------------------------------------------| 
Gb|----------------------------------------------------------| 
Db|----7-6-5-3-0---7-6-5-3-0-3--7-6-5-3-0-5---0--7-6-5-3-0---| 
Ab|-0--7-6-5-3-0---7-6-5-3-0-3--7-6-5-3-0-5---0--7-6-5-3-0---| 
Db|-0--7-6-5-3-0---7-6-5-3-0-3--7-6-5-3-0-5---0--7-6-5-3-0---| 
 
SOLO 2:47 
---- 
eb|-13^fb----10----------------------------------------------| 
Bb|-13^fb~~~-10~~10*~~---------------------------------------| 
Gb|-------------------12^fb10h12p10--10------------10--12*~~-| 
Db|--------------------------------12--12~~10h12p10--12------| 
Ab|----------------------------------------------------------| 
Eb|----------------------------------------------------------| 
 
 
eb|----------------------------------------------------------| 
Bb|------13-----10--------------13-----13----------13~~~~----| 
Gb|-10h12--10h12--10h12-12-10h12--10h12--10h12-12------------| 
Db|----------------------------------------------------------| 
Ab|----------------------------------------------------------| 
Eb|----------------------------------------------------------| 
 
 
eb|---------------------------------------------13-15*~~-15\-| 
Bb|-13~~~~-13~~~~-13~~~~-13~~~~-----------10-13--------------| 
Gb|---------------------------------10-12--------------------| 
Db|------------------------------12--------------------------| 
Ab|----------------------------------------------------------| 
Eb|----------------------------------------------------------| 
                                 ^wah 
eb|-18^fb18-15-----------13-15^fb15^fb13---------------------| 
Bb|-----------17-15-13-15---------------15~~-13^fb-10h13p10--| 
Gb|----------------------------------------------------------| 
Db|----------------------------------------------------------| 
Ab|----------------------------------------------------------| 
Eb|----------------------------------------------------------| 
 
eb|-----------------------10h13p10h13p10h13p10h1310-10h13p10-| 
Bb|---10--------------10~------------------------------------| 
Gb|-12--12~-----------10~------------------------------------| 
Db|--------10h12p10-12---------------------------------------| 
Ab|----------------------------------------------------------| 
Eb|----------------------------------------------------------| 
 
eb|-------10h13p10----10h13p10----10h13p10----13p10~~--------| 
Bb|----------------13----------13----------13----------------| 
Gb|----------------------------------------------------------| 
Db|----------------------------------------------------------| 
Ab|----------------------------------------------------------| 
Eb|----------------------------------------------------------| 
 
eb|-----131013101210121013101510121015101310121015101310-----| 
Bb|----------------------------------------------------------| 
Gb|----------------------------------------------------------| 
Db|----------------------------------------------------------| 
Ab|----------------------------------------------------------| 
Eb|----------------------------------------------------------| 
 
eb|-13-12-10----------------20^fb~~-20^fb~~-20^fb~~-20^fb~~--| 
Bb|---------10^-12-11----------------------------------------| 
Gb|-------------------12-10^---------------------------------| 
Db|----------------------------------------------------------| 
Ab|----------------------------------------------------------| 
Eb|----------------------------------------------------------| 
             ^whammy1/4   ^whammy1/4 
 
eb|-20p17-17-19~~~~~~~~--| 
Bb|----------------------| 
Gb|----------------------| 
Db|----------------------|END SOLO 
Ab|----------------------| 
Eb|----------------------| 
 
Chorus #3 3:24 
------ 
eb|----------------------------------------------------------| 
Bb|--------------------------------------------------3--3-3--| 
Gb|--------------------------5--5--5--5--------------2--2-2--| 
Db|--8--8--8--8--3--3--3--3--5--5--5--5--5--5--5--5--0--0-0--| 
Ab|--8--8--8--8--3--3--3--3--3--3--3--3--5--5--5--5--0--0-0--| 
Db|--8--8--8--8--3--3--3--3--------------5--5--5--5--0--0-0--| 
(Lead) 
eb|------------------------------------------------------10--| 
Bb|-10-10----10-10-13p10----10--------10-10--10h13p10-13-10--| 
Gb|-10-10----10-10-12p10----10-12p10--10-10------------------| 
Db|-------12-------------12---------12-----12----------------| 
Ab|----------------------------------------------------------| 
Eb|----------------------------------------------------------| 
 
 
eb|----------------------------------------------------------| 
Bb|--------------------------------------------------3--3-3--| 
Gb|--------------------------5/7-7-7-7/9-------------2--2-2--| 
Db|--8--8--8--8--3--3--3--3--------------5--5--5--5--0--0-0--| 
Ab|--8--8--8--8--3--3--3--3--3/5-5-5-5/7-5--5--5--5--0--0-0--| 
Db|--8--8--8--8--3--3--3--3--------------5--5--5--5--0--0-0--| 
(Lead) 
eb|----------------------------------------------------------| 
Bb|-13---------------------------10-10-----------------------| 
Gb|-12^fb-10h12p10---------------10-10----------10-12-10~~---| 
Db|----------------12~~-10h12p10-------12-10h12--------------| 
Ab|----------------------------------------------------------| 
Eb|----------------------------------------------------------| 
 
 
eb|----------------------------------------------------------| 
Bb|--------------------------------------------------3--3-3--| 
Gb|--------------------------5/7-7-7-7/9-------------2--2-2--| 
Db|--8--8--8--8--3--3--3--3--------------5--5--5--5--0--0-0--| 
Ab|--8--8--8--8--3--3--3--3--3/5-5-5-5/7-5--5--5--5--0--0-0--| 
Db|--8--8--8--8--3--3--3--3--------------5--5--5--5--0--0-0--| 
(Lead) 
eb|----------------------------------------------------------| 
Bb|----------------------------------------------------------| 
Gb|----------------------------------------------------------| 
Db|-------------------------8--------------------------------| 
Ab|-10^hb-8h10p8------------8-8-------8-8h10p8----8----------| 
Eb|-------------10~~-8h10p8-----8--10----------10------------| 
 
eb|----------------------------------------------------------| 
Bb|--------------------------------------------------3--3-3--| 
Gb|--------------------------5--5--5--5--------------2--2-2--| 
Db|--8--8--8--8--3--3--3--3--5--5--5--5--5--5--5--5--0--0-0--| 
Ab|--8--8--8--8--3--3--3--3--3--3--3--3--5--5--5--5--0--0-0--| 
Db|--8--8--8--8--3--3--3--3--------------5--5--5--5--0--0-0--| 
(Lead) 
eb|-------------------------------------------------------------15^fb~~-| 
Bb|------13-----13-----13-----13-----13-13^fb-13^fb-13^fb-13^fb---------| 
Gb|-12^fb--12^fb--12^fb--12^fb--12^fb-----------------------------------| 
Db|---------------------------------------------------------------------| 
Ab|---------------------------------------------------------------------| 
Eb|---------------------------------------------------------------------| 
 
Outro 4:14 
----- 
eb|----------------------------------------------------------| 
Bb|----------------------------------------------------------| 
Gb|----------------------------------------------------------| 
Db|-----------------------------------------------3*~~-------| 
Ab|--0---5-4-3---------3-0-5--3-----------3---3-5------------| 
Db|--0-0-------7-6~~-0-3-0-5----3~~-0-3-5---5----------------| 
 
 
eb|----------------------------------------------------------| 
Bb|----------------------------------------------------------| 
Gb|----------------------------------------------------------| 
Db|-----------------------------------------3-0-3---------0--| 
Ab|-0---5-4-3---------3-0-5--3-----0-3-5-3--3-0-3--5-3-2--0--| 
Db|-0-0-------7-6~~-0-3-0-5----3~~-0-3-5-3--3-0-3--5-3-2--0--| 
						   PM... 
 
keanuhorrivis :D 
 
_______________________________________________________ 
Contribuição: Valter tomaz([email protected]) 

	  

Search Paypal
auto scroll beats size up size down change color hide chords drawings
tab show chords e-chords YouTube Clip e-chords hide all tabs e-chords go to top tab