Alter Bridge

home > Alter Bridge

Down To My Last Tab

Alter Bridge

Difficulty: EasyEasy

tuner correct add songbook print version text version save to e-mail
chordsukulelecavacokeyboardtabbassdrumsharmonicsflute Guitar Pro
chords

Down To My Last

  		 
Intro - Distorção 
 
eb|-------------------------------------------------------------------| 
Bb|-------------------------------------------------------------------| 
Gb|-------------------------------------------------------------------| 
Db|-11--11?-11-12-12/14--14-12-11-11----------------------------------| 
Ab|-0---0---0--0--0------0--0--0--0---14--14--11-12-12/14--14-12-11---| 
Eb|-----------------------------------0---0---0--0--0------0--0--0----| 
                                    
                                   
eb|--------------------------------------------------------------| 
Bb|--------------------------------------------------------------| 
Gb|-11--11--11-9-9----14p12p11-----------------------------------| 
Db|-0---0---0--0-0--0----------12p11p9-11--11-11-9?---7-9b(1)r-7-| 
Ab|-0---0---0--0-0--0------------------0---0--0--0---(0)-------0-| 
Eb|--------------------------------------------------------------| 
 
 
Verse 1 - clean 
 
eb|---------------------------------------------------| 
Bb|---------------------------------------------------| 
Gb|---------------------------------------------------| 
Db|-11--11?-11-12--12-12-11---------------------------| 
Ab|-0---0---0--0---0--0--0---11--11--11-12--12-12-11--| 
Eb|--------------------------0---0---0--0---0--0--0---| 
                                                                      
eb|---------------------------------------------------------| 
Bb|---------------------------------------------------------| 
Gb|-11--11--11-9--9-9-9p7\6---------------------------------| 
Db|-0---0---0--0--0-0-0------11?-11--11-12?-12-12-12-11?-9--| 
Ab|--------------------------0---0---0--0---0--0--0?-0---0--| 
Eb|---------------------------------------------------------| 
 
eb|----------------------------------------------------| 
Bb|----------------------------------------------------| 
Gb|----------------------------------------------------| 
Db|-/11--11?-11-12--12-12-11---------------------------| 
Ab|--0---0---0--0---0--0--0---11--11--11-12--12-12-11--| 
Eb|---------------------------0---0---0--0---0--0--0---| 
                                    
eb|------------------------------------------------------------------| 
Bb|------------------------------------------------------------------| 
Gb|-11--11--11-9--9-9-11brp9------14--14-14-14--14-14--14-14--14-14--| 
Db|-0---0---0--0--0-0-0------11?9-11--11-11?11--11-12--12-12?-12-11--| 
Ab|-------------------------------0---0--0--0---0--0?--0--0---0--0---| 
Eb|------------------------------------------------------------------| 
 
 
Verse - Distortion 
 
eb|-------------------------------------------------------------------| 
Bb|-------------------------------------------------------------------| 
Gb|-------------------------------------------------------------------| 
Db|-11--11?-11-12-12/14--14-12-11-11----------------------------------| 
Ab|-0---0---0--0--0------0--0--0--0---14--14--11-12-12/14--14-12-11---| 
Eb|-----------------------------------0---0---0--0--0------0--0--0----| 
                                    
eb|-------------------------------------------------------------------| 
Bb|-------------------------------------------------------------------| 
Gb|-11--11--11-9--9-9--9----------------------------------------------| 
Db|-0---0---0--0--0-0--0--11-9-11--11-11-11?-11-12-?12-12?-12-11--9---| 
Ab|-0---0---0--0--0-0--0-------0---0--0--0---0?-0---0--0---0--0---0---| 
Eb|-------------------------------------------------------------------| 
 
eb|-------------------------------------------------------------------| 
Bb|-------------------------------------------------------------------| 
Gb|-------------------------------------------------------------------| 
Db|-/11--11?-11-12-12/14--14-12-11-11---------------------------------| 
Ab|--0---0---0--0--0------0--0--0--0---14--14--11-12-12/14--14-12-11--| 
Eb|------------------------------------0---0---0--0--0------0--0--0---| 
 
eb|------------------------------------------------| 
Bb|--------------------------3--3--3-3-3-3--3-3-3--| 
Gb|--------------------------2--2--2-2-2-2--2-2-2--| 
Db|--4--4-----4--------------0--0--0-0-0-0--0-0-0--| 
Ab|--4--4-4-4-4--4-4-4-4--4--0--0--0-0-0-0--0-0-0--| 
Eb|--2--2-2-2-2--0-2-0-2--0------------------------| 
          . . 
 
Chorus 
 
eb|-------------------------------------------------------------------| 
Bb|-------------------------------------------------------------------| 
Gb|-14--14--14-14-14-----14-14-14-14----------------------------------| 
Db|-11--11?-11-12-12h14--14-12-11-11--14--14--14-14-14-----14-14-14---| 
Ab|-0---0---0--0--0------0--0--0--0---14--14--11-12-12h14--14-12-11---| 
Eb|-----------------------------------0---0---0--0--0------0--0--0----| 
                                    
eb|-------------------------------------------------------------------| 
Bb|-------------------------------------------------------------------| 
Gb|-11--11--11-9--9?11br9-------14--14-14-14--14-14--14-14--14-14-----| 
Db|-0---0---0--0--0-0-----11-9--11--11-11-11?-11-12-?12-12?-12-11--9--| 
Ab|-0---0---0--0--0-------------0---0--0--0---0?-0---0--0---0--0---0--| 
Eb|-------------------------------------------------------------------| 
 
eb|-------------------------------------------------------------------| 
Bb|-------------------------------------------------------------------| 
Gb|-14--14--14-14-14-----14-14-14-14----------------------------------| 
Db|-11--11?-11-12-12h14--14-12-11-11--14--14--14-14-14-----14-14-14---| 
Ab|-0---0---0--0--0------0--0--0--0---14--14--11-12-12h14--14-12-11---| 
Eb|-----------------------------------0---0---0--0--0------0--0--0----| 
 
eb|--------------------------------------------------------------| 
Bb|-----------------------------------------3--3--3-3-3-3--3-3-3-| 
Gb|-2--2-2----------------------------------2--2--2-2-2-2--2-2-2-| 
Db|-0--0-0--7--7-7--7-7--4--4-----------4---0--0--0-0-0-0--0-0-0-| 
Ab|-0--0-0--4--4-4--4-4--4--4--4-4-4-4--4---0--0--0-0-0-0--0-0-0-| 
Eb|----------------------2--2--0-2-0-2--2------------------------| 
                               . . . . 
 
 
Done!! 
 
 
 
| .  palm mute 
| /  slide up 
| \  slide down 
| h  hammer-on 
| p  pull-off 
| ~  vibrato 
| +  harmonic 
| x  Mute note 
 
 
_______________________________________________________ 
Contribuição: Dudlei Dangio Landim([email protected]) 

	  

Search Paypal
auto scroll beats size up size down change color hide chords drawings
tab show chords e-chords YouTube Clip e-chords hide all tabs e-chords go to top tab