Alter Bridge

home > Alter Bridge

Come To Life Tab

Alter Bridge

Difficulty: nolevelnolevel

by carlluz

tuner correct add songbook print version text version save to e-mail
chordsukulelecavacokeyboardtabbassdrumsharmonicsflute Guitar Pro
chords

Come To Life

Year: 2007 - Album: Blackbird

  		
   Intro: 
 
D#|-------------------------------------|-------------------------------------|-------------------------------------| 
A#|-------------------------------------|-------------------------------------|-------------------------------------| 
F#|-------------------------------------|-------------------------------------|-------------------------------------| 
C#|-------------------------------------|-------------------------------------|-------------------------------------| 
G#|---------14-12--15-14--12-----15-14--|---------14-12--15-14--12------------|---------14-12--15-14--12-----15-14--| 
A#|-0---0--------------------13---------|-0---0--------------------13--13-13--|-0---0--------------------13---------| 
 
  | 
  | 
 
D#|-------------------------------------|-------------------------------------|-------------------------------------| 
A#|-------------------------------------|-------------------------------------|-------------------------------------| 
F#|-------------------------------------|-------------------------------------|-------------------------------------| 
C#|-------------------------------------|-------------------------------------|-------------------------------------| 
G#|-------------------------------------|-------------------------------------|---------14-12--15-14--12-----15-14--| 
A#|-------------------------------------|-------------------------------------|-0---0--------------------13---------| 
 


 
D#|-------------------------|-----------------------------------------|-----------------------------------------| 
A#|-------------------------|-----------------------------------------|-----------------------------------------| 
F#|-------------------------|-----------------------------------------|-----------------------------------------| 
C#|-------------------------|-----------------------------------------|-----------------------------------------| 
G#|---------14-12--15-14b---|---------2------3------------------0--2--|---------2------3------------------0--2--| 
A#|-0---0-------------------|-0---0------0------0---3--0--1--0--------|-0---0------0------0---3--0--1--0--------| 
 
  | 
  | 
 
D#|-------------------------|-----------------------------------------|-----------------------------------------| 
A#|-------------------------|-----------------------------------------|-----------------------------------------| 
F#|-------------------------|-----------------------------------------|-----------------------------------------| 
C#|-------------------------|-----------------------------------------|-----------------------------------------| 
G#|---------14-12--15-14b---|---------2------3------------------0--2--|---------2------3------------------0--2--| 
A#|-0---0-------------------|-0---0------0------0---3--0--1--0--------|-0---0------0------0---3--0--1--0--------| 
 

          
 
D#|-------------------------------------------|----------------------------|-----------------------------------------| 
A#|-------------------------------------------|----------------------------|-----------------------------------------| 
F#|-------------------------------------------|----------------------------|-----------------------------------------| 
C#|-------------------------------------------|----------------------------|-----------------------------------------| 
G#|-----------2------3------------------0--2--|-10---10--------------------|---------2------3------------------0--2--| 
A#|-0--0--0------0------0---3--0--1--0--------|-8----8----0--0--5---0--3---|-0---0------0------0---3--0--1--0--------| 
 
  | 
  | 
 
D#|-------------------------------------------|----------------------------|-----------------------------------------| 
A#|-------------------------------------------|----------------------------|-----------------------------------------| 
F#|-------------------------------------------|----------------------------|-----------------------------------------| 
C#|-------------------------------------------|----------------------------|-----------------------------------------| 
G#|-----------2------3------------------0--2--|-10---10--------------------|---------2------3------------------0--2--| 
A#|-0--0--0------0------0---3--0--1--0--------|-8----8----0--0--5---0--3---|-0---0------0------0---3--0--1--0--------| 
 


 
D#|-----------------------------------------|-------------------------------------------| 
A#|-----------------------------------------|-------------------------------------------| 
F#|-----------------------------------------|-------------------------------------------| 
C#|-----------------------------------------|-------------------------------------------| 
G#|---------2------3------------------0--2--|-----------2------3------------------0--2--| 
A#|-0---0------0------0---3--0--1--0--------|-0--0--0------0------0---3--0--1--0--------| 
 
  | 
  | 
 
D#|-----------------------------------------|-------------------------------------------| 
A#|-----------------------------------------|-------------------------------------------| 
F#|-----------------------------------------|-------------------------------------------| 
C#|-----------------------------------------|-------------------------------------------| 
G#|---------2------3------------------0--2--|-----------2------3------------------0--2--| 
A#|-0---0------0------0---3--0--1--0--------|-0--0--0------0------0---3--0--1--0--------| 
 

                                Verse: (use palm muting) 
 
D#|----------------------------|-----------------------------------------|-----------------------------------------| 
A#|----------------------------|-----------------------------------------|-----------------------------------------| 
F#|----------------------------|-----------------------------------------|-----------------------------------------| 
C#|----------------------------|-----------------------------------------|-----------------------------------------| 
G#|-10---10--------------------|---------2------3------------------0--2--|---------2------3------------------0--2--| 
A#|-8----8----0--0--5---0--3---|-0---0------0------0---3--0--1--0--------|-0---0------0------0---3--0--1--0--------| 
 
  | 
  | 
 
D#|----------------------------|-----------------------------------------|-----------------------------------------| 
A#|----------------------------|-----------------------------------------|-----------------------------------------| 
F#|----------------------------|-----------------------------------------|-----------------------------------------| 
C#|----------------------------|-----------------------------------------|-----------------------------------------| 
G#|-10---10--------------------|-----------------------------------------|-----------------------------------------| 
A#|-8----8----0--0--5---0--3---|-----------------------------------------|-----------------------------------------| 
 

D 
 
D#|-------------------------------------------|----------------------------|-----------------------------------------| 
A#|-------------------------------------------|----------------------------|-----------------------------------------| 
F#|-------------------------------------------|----------------------------|-----------------------------------------| 
C#|-------------------------------------------|----------------------------|-----------------------------------------| 
G#|-----------2------3------------------0--2--|-10---10--------------------|---------2------3------------------0--2--| 
A#|-0--0--0------0------0---3--0--1--0--------|-8----8----0--0--5---0--3*--|-0---0------0------0---3--0--1--0--------| 
 
  | 
  | 
 
D#|-------------------------------------------|----------------------------|-----------------------------------------| 
A#|-------------------------------------------|----------------------------|-----------------------------------------| 
F#|-------------------------------------------|----------------------------|-----------------------------------------| 
C#|-------------------------------------------|----------------------------|-----------------------------------------| 
G#|-------------------------------------------|-10---10--------------------|-----------------------------------------| 
A#|-------------------------------------------|-8----8----0--0--5---0--3---|-----------------------------------------| 
 


 
D#|-----------------------------------------|-------------------------------------------| 
A#|-----------------------------------------|-------------------------------------------| 
F#|-----------------------------------------|-------------------------------------------| 
C#|-----------------------------------------|-------------------------------------------| 
G#|---------2------3------------------0--2--|-----------2------3------------------0--2--| 
A#|-0---0------0------0---3--0--1--0--------|-0--0--0------0------0---3--0--1--0--------| 
 
  | 
  | 
 
D#|-----------------------------------------|-------------------------------------------| 
A#|-----------------------------------------|-------------------------------------------| 
F#|-----------------------------------------|-------------------------------------------| 
C#|-----------------------------------------|-------------------------------------------| 
G#|-----------------------------------------|-------------------------------------------| 
A#|-----------------------------------------|-------------------------------------------| 
 


 
D#|----------------------------|----------------------------------|-----------------------------| 
A#|----------------------------|----------------------------------|-----------------------------| 
F#|----------------------------|-8----8---8--8---9--9---9---9--9--|-12---12--12-12--11-11--11---| 
C#|----------------------------|-x----x---x--x---x--x---x---x--x--|--x----x---x--x---x--x---x---| 
G#|-10---10--------------------|-6----6---6--6---7--7---7---7--7--|-10---10--10-10---9--9---9---| 
A#|-8----8----0--0--5---0--3---|----------------------------------|-----------------------------| 
 
  | 
  | 
 
D#|----------------------------|----------------------------------|-----------------------------| 
A#|----------------------------|----------------------------------|-----------------------------| 
F#|----------------------------|----------------------------------|-----------------------------| 
C#|----------------------------|----------------------------------|-----------------------------| 
G#|-10---10--------------------|-2--------------------------------|-2-----14--------------------| 
A#|-8----8----0--0--5---0--3---|-0--------------------------------|-0-----12--------------------| 
 


   Chorus: (both guitars) 
 
D#|----------------------------------------|----------------------------------------| 
A#|----------------------------------------|-3---3--3---3--3------------------------| 
F#|-4---4--4---4--4---4--4--4--4--4--4--4--|-4---4--4---4--4---4--4--4--4--4--4--4--| 
C#|-4---4--4---4--4---4--4--4--4--4--4--4--|-4---4--4---4--4---4--4--4--4--4--4--4--| 
G#|-2---2--2---2--2---2--2--2--2--2--2--2--|-2---2--2---2--2---2--2--2--2--2--2--2--| 
A#|-0---0--0---0------------------------0--|-0---0--0---0------------------------0--| 
 


 
D#|-0---0--0---0--0---0--0--0--0--0--0--0--|----------------------------|----------------------------------------| 
A#|-0---0--0---0--0---0--0--0--0--0--0--0--|----------------------------|-0---0--0---0--0---0--0--0--0--0--0--0--| 
F#|-2---2--2---2--2---2--2--2--2--2--2--2--|----------------------------|-4---4--4---4--4---4--4--4--4--4--4--4--| 
C#|-2---2--2---2--2---2--2--2--2--2--2--2--|----------------------------|-4---4--4---4--4---4--4--4--4--4--4--4--| 
G#|-0---0--0---0--0---0--0--0--0--0--0--0--|-10---10---5--5--5---5--5---|-2---2--2---2--2---2--2--2--2--2--2--2--| 
A#|-----0--0---0------------------------0--|-8----8----3--3--3---3--3---|-0---0--0---0------------------------0--| 
 


 
D#|-0---0--0---0--0------------------------|-0---0--0---0--0---0--0--0--0--0--0--0--| 
A#|-3---3--3---3--3---0--0--0--0--0--0--0--|-0---0--0---0--0---0--0--0--0--0--0--0--| 
F#|-4---4--4---4--4---4--4--4--4--4--4--4--|-2---2--2---2--2---2--2--2--2--2--2--2--| 
C#|-4---4--4---4--4---4--4--4--4--4--4--4--|-2---2--2---2--2---2--2--2--2--2--2--2--| 
G#|-2---2--2---2--2---2--2--2--2--2--2--2--|-0---0--0---0--0---0--0--0--0--0--0--0--| 
A#|-0---0--0---0------------------------0--|-----0--0---0------------------------0--| 
 


 
D#|-------------------------------|-----------------------------------------|-----------------------------------------| 
A#|-------------------------------|-----------------------------------------|-----------------------------------------| 
F#|-------------------------------|-----------------------------------------|-----------------------------------------| 
C#|-------------------------------|-----------------------------------------|-----------------------------------------| 
G#|-10---10-----------------------|---------2------3------------------0--2--|---------2------3------------------0--2--| 
A#|-8----8----5--5--0---5--5--3---|-0---0------0------0---3--0--1--0--------|-0---0------0------0---3--0--1--0--------| 
 



 
D#|-------------------------------------------|-------------------------------------------------| 
A#|-------------------------------------------|-------------------------------------------------| 
F#|-------------------------------------------|-------------------------------------------------| 
C#|-------------------------------------------|-------------------------------------------------| 
G#|-----------2------3------------------0--2--|-------------0--2--------------0--2--------0--2--| 
A#|-0--0--0------0------0---3--0--1--0--------|-0--3--0--1--------0--3--0--1--------0--3--------| 
 
  | 
  | 
 
D#|-------------------------------------------|-------------------------------------------------| 
A#|-------------------------------------------|-------------------------------------------------| 
F#|-------------------------------------------|-------------------------------------------------| 
C#|-------------------------------------------|-------------------------------------------------| 
G#|-------------------------------------------|-------------------------------------------------| 
A#|-------------------------------------------|-------------------------------------------------| 
 

 
D#|-------------------------------------------|-------------------------------| 
A#|-------------------------------------------|-------------------------------| 
F#|-------------------------------------------|-------------------------------| 
C#|-------------------------------------------|-------------------------------| 
G#|-----------2------3------------------0--2--|-10---10-----------------------| 
A#|-0--0--0------0------0---3--0--1--0--------|-8----8----5--5--0---5--5--3---| 
 
  | 
  | 
 
D#|-------------------------------------------|-------------------------------| 
A#|-------------------------------------------|-------------------------------| 
F#|-------------------------------------------|-------------------------------| 
C#|-------------------------------------------|-------------------------------| 
G#|-------------------------------------------|-------------------------------| 
A#|-------------------------------------------|-------------------------------| 
 



 
D#|-----------------------------------------|-----------------------------------------| 
A#|-----------------------------------------|-----------------------------------------| 
F#|-----------------------------------------|-----------------------------------------| 
C#|-----------------------------------------|-----------------------------------------| 
G#|---------2------3------------------0--2--|---------2------3------------------0--2--| 
A#|-0---0------0------0---3--0--1--0--------|-0---0------0------0---3--0--1--0--------| 
 
  | 
  | 
 
D#|-----------------------------------------|-----------------------------------------| 
A#|-----------------------------------------|-----------------------------------------| 
F#|-----------------------------------------|-----------------------------------------| 
C#|-----------------------------------------|-----------------------------------------| 
G#|-----------------------------------------|-----------------------------------------| 
A#|-----------------------------------------|-----------------------------------------| 
 

 
D#|-------------------------------------------|-------------------------------| 
A#|-------------------------------------------|-------------------------------| 
F#|-------------------------------------------|-------------------------------| 
C#|-------------------------------------------|-------------------------------| 
G#|-----------2------3------------------0--2--|-10---10-----------------------| 
A#|-0--0--0------0------0---3--0--1--0--------|-8----8----5--5--0---5--5--3---| 
 
  | 
  | 
 
D#|-------------------------------------------|-------------------------------| 
A#|-------------------------------------------|-------------------------------| 
F#|-------------------------------------------|-------------------------------| 
C#|-------------------------------------------|-------------------------------| 
G#|-------------------------------------------|-------------------------------| 
A#|-------------------------------------------|-------------------------------| 
 


 
D#|----------------------------------|--------------------------------------------------| 
A#|----------------------------------|--------------------------------------------------| 
F#|-8----8---8--8---9--9---9---9--9--|-12-12-12-14-12-12-11-11-11-11-11-11-11-11-11-11--| 
C#|-x----x---x--x---x--x---x---x--x--|--x--x--x--x--x--x--x--x--x--x--x--x--x--x--x--x--| 
G#|-6----6---6--6---7--7---7---7--7--|-10-10-10-12-10-10--9--9--9--9--9--9--9--9--9--9--| 
A#|----------------------------------|--------------------------------------------------| 
 
  | 
  | 
 
D#|----------------------------------|--------------------------------------------------| 
A#|----------------------------------|--------------------------------------------------| 
F#|----------------------------------|--------------------------------------------------| 
C#|----------------------------------|--------------------------------------------------| 
G#|-2--------------------------------|(2)----14-----------------------------------------| 
A#|-0--------------------------------|(0)----12-----------------------------------------| 
 

   Chorus: (both guitars)  
 
D#|----------------------------------------|----------------------------------------|-0---0--0---0--0---0--0--0--0--0--0--0--| 
A#|----------------------------------------|-3---3--3---3--3------------------------|-0---0--0---0--0---0--0--0--0--0--0--0--| 
F#|-4---4--4---4--4---4--4--4--4--4--4--4--|-4---4--4---4--4---4--4--4--4--4--4--4--|-2---2--2---2--2---2--2--2--2--2--2--2--| 
C#|-4---4--4---4--4---4--4--4--4--4--4--4--|-4---4--4---4--4---4--4--4--4--4--4--4--|-2---2--2---2--2---2--2--2--2--2--2--2--| 
G#|-2---2--2---2--2---2--2--2--2--2--2--2--|-2---2--2---2--2---2--2--2--2--2--2--2--|-0---0--0---0--0---0--0--0--0--0--0--0--| 
A#|-0---0--0---0------------------------0--|-0---0--0---0------------------------0--|-----0--0---0------------------------0--| 
 

 
D#|----------------------------|----------------------------------------|-0---0--0---0--0------------------------| 
A#|----------------------------|-0---0--0---0--0---0--0--0--0--0--0--0--|-3---3--3---3--3---0--0--0--0--0--0--0--| 
F#|----------------------------|-4---4--4---4--4---4--4--4--4--4--4--4--|-4---4--4---4--4---4--4--4--4--4--4--4--| 
C#|----------------------------|-4---4--4---4--4---4--4--4--4--4--4--4--|-4---4--4---4--4---4--4--4--4--4--4--4--| 
G#|-10---10---5--5--5---5--5---|-2---2--2---2--2---2--2--2--2--2--2--2--|-2---2--2---2--2---2--2--2--2--2--2--2--| 
A#|-8----8----3--3--3---3--3---|-0---0--0---0------------------------0--|-0---0--0---0------------------------0--| 
 

                                                                             Bridge: (both guitars) 
 
D#|-0---0--0---0--0---0--0--0--0--0--0--0--|-------------------------------|-------------------------------| 
A#|-0---0--0---0--0---0--0--0--0--0--0--0--|-------------------------------|-------------------------------| 
F#|-2---2--2---2--2---2--2--2--2--2--2--2--|-------------------------------|---------16-14------12-14------| 
C#|-2---2--2---2--2---2--2--2--2--2--2--2--|-------------------------------|----------x--x-------x--x------| 
G#|-0---0--0---0--0---0--0--0--0--0--0--0--|-10---10-----------------------|---------14-12------10-12------| 
A#|-----0--0---0------------------------0--|-8----8----5--5--0---5--5--3---|-0---0----------0-----------0--| 
 


 
D#|-------------------------------|-------------------------------|-------------------------------| 
A#|-------------------------------|-------------------------------|-------------------------------| 
F#|---------12-11------9--11--7---|---------16-14------12-14------|---------12-11------9--11--7---| 
C#|----------x--x------x---x--x---|----------x--x-------x--x------|----------x--x------x---x--x---| 
G#|---------10--9------7---9--5---|---------14-12------10-12------|---------10--9------7---9--5---| 
A#|-0---0----------0--------------|-0---0----------0-----------0--|-0---0----------0--------------| 
 


   Solo: (not sure of the rhythm) 
 
D#|--------|----------14-15-14----------------------------------------| 
A#|-10-----|----14-15----------15-17-14-15-19-15-14-15-14----14-------| 
F#|-12-----|-14-------------------------------------------14----14----| 
C#|--------|-------------------------------------------------------16-| 
G#|--------|----------------------------------------------------------| 
A#|--------|----------------------------------------------------------| 
 


 
D#|-15fb--15-17-17--17--15--|-15--14-14-17-15-14----------------------------------------------| 
A#|-------------------------|--------------------14-15-17-15-14----14-------------------------| 
F#|-------------------------|-----------------------------------16----14-16-12-14-12-11-12-11-| 
C#|-------------------------|-----------------------------------------------------------------| 
G#|-------------------------|-----------------------------------------------------------------| 
A#|-------------------------|-----------------------------------------------------------------| 
 


 
D#|-----------------------------|----------------------------------------------|-----------------------15----15--| 
A#|-----------------------14-15-|-17----14-15-17----14-15-17----14-15-17-15-14-|-15--15-14-15-17-15-14-----------| 
F#|-----------------------------|----------------------------------------------|---------------------------------| 
C#|-12---11-12-14-11---11-------|----------------------------------------------|---------------------------------| 
G#|-----------------------------|----------------------------------------------|---------------------------------| 
A#|-----------------------------|----------------------------------------------|---------------------------------| 
 


 
D#|-------------------------------------14----14-15-14-15-17-15-19-21-19-21-|-21---21--21--21--19-21-| 
A#|----------14----14-15-14-15-17-15-17----17-------------------------------|------------------------| 
F#|-16-14-16----16----------------------------------------------------------|------------------------| 
C#|-------------------------------------------------------------------------|------------------------| 
G#|-------------------------------------------------------------------------|------------------------| 
A#|-------------------------------------------------------------------------|------------------------| 
 


 
D#|-22-22-19-21-22-19-21-22---19-17-22-|-19-----| 
A#|------------------------------------|--------| 
F#|------------------------------------|--------| 
C#|------------------------------------|--------| 
G#|------------------------------------|--------| 
A#|------------------------------------|--------| 
 

   Chorus: (second guitar plays an octave part) 
 
D#|----------------------------------------|----------------------------------------| 
A#|----------------------------------------|-3---3--3---3--3------------------------| 
F#|-4---4--4---4--4---4--4--4--4--4--4--4--|-4---4--4---4--4---4--4--4--4--4--4--4--| 
C#|-4---4--4---4--4---4--4--4--4--4--4--4--|-4---4--4---4--4---4--4--4--4--4--4--4--| 
G#|-2---2--2---2--2---2--2--2--2--2--2--2--|-2---2--2---2--2---2--2--2--2--2--2--2--| 
A#|-0---0--0---0------------------------0--|-0---0--0---0------------------------0--| 
 


 
D#|-0---0--0---0--0---0--0--0--0--0--0--0--|----------------------------|----------------------------------------| 
A#|-0---0--0---0--0---0--0--0--0--0--0--0--|----------------------------|-0---0--0---0--0---0--0--0--0--0--0--0--| 
F#|-2---2--2---2--2---2--2--2--2--2--2--2--|----------------------------|-4---4--4---4--4---4--4--4--4--4--4--4--| 
C#|-2---2--2---2--2---2--2--2--2--2--2--2--|----------------------------|-4---4--4---4--4---4--4--4--4--4--4--4--| 
G#|-0---0--0---0--0---0--0--0--0--0--0--0--|-10---10---5--5--5---5--5---|-2---2--2---2--2---2--2--2--2--2--2--2--| 
A#|-----0--0---0------------------------0--|-8----8----3--3--3---3--3---|-0---0--0---0------------------------0--| 
 


 
D#|-0---0--0---0--0------------------------|-0---0--0---0--0---0--0--0--0--0--0--0--| 
A#|-3---3--3---3--3---0--0--0--0--0--0--0--|-0---0--0---0--0---0--0--0--0--0--0--0--| 
F#|-4---4--4---4--4---4--4--4--4--4--4--4--|-2---2--2---2--2---2--2--2--2--2--2--2--| 
C#|-4---4--4---4--4---4--4--4--4--4--4--4--|-2---2--2---2--2---2--2--2--2--2--2--2--| 
G#|-2---2--2---2--2---2--2--2--2--2--2--2--|-0---0--0---0--0---0--0--0--0--0--0--0--| 
A#|-0---0--0---0------------------------0--|-----0--0---0------------------------0--| 
 


   Outro: (Both guitars) 
 
D#|-----------------------------------------|-----------------------------------------| 
A#|-----------------------------------------|-----------------------------------------| 
F#|-----------------------------------------|-----------------------------------------| 
C#|-----------------------------------------|-----------------------------------------| 
G#|---------2------3------------------0--2--|---------2------3------------------0--2--| 
A#|-0---0------0------0---3--0--1--0--------|-----0------0------0---3--0--1--0--------| 
 


 
D#|-------------------------------------------|-------------------------------------------------| 
A#|-------------------------------------------|-------------------------------------------------| 
F#|-------------------------------------------|-------------------------------------------------| 
C#|-------------------------------------------|-------------------------------------------------| 
G#|-----------2------3------------------0--2--|-------------0--2--------------0--2--------0--2--| 
A#|-0--0--0------0------0---3--0--1--0--------|-0--3--0--1--------0--3--0--1--------0--3--------| 
 


 
D#|-------------------------------------------------|14------|14------|12------|15------| 
A#|-------------------------------------------------|12------|12------|14------|12------| 
F#|-------------------------------------------------|--------|--------|--------|--------| 
C#|-------------------------------------------------|--------|--------|--------|--------| 
G#|-------------0--2--------------0--2--------0--2--|--------|--------|--------|--------| 
A#|-0--3--0--1--------0--3--0--1--------0--3--------|--------|--------|--------|--------| 
 
  | 
  | 
D#|-------------------------------------------------|--------|--------|--------|--------| 
A#|-------------------------------------------------|--------|--------|--------|--------| 
F#|-------------------------------------------------|--------|--------|--------|--------| 
C#|-------------------------------------------------|--------|--------|--------|--------| 
G#|-------------0--2--------------0--2--------0--2--|-2------|(2)-----|(2)-----|(2)-----| 
A#|-0--3--0--1--------0--3--0--1--------0--3--------|-0------|(0)-----|(0)-----|(0)-----| 
	  

Search Paypal
auto scroll beats size up size down change color hide chords drawings
tab show chords e-chords YouTube Clip e-chords hide all tabs e-chords go to top tab