Alter Bridge

home > Alter Bridge

Addicted To Pain Tab

Alter Bridge

Difficulty: ExpertExpert

by hugo%5Frodrigues

tuner correct add songbook print version text version save to e-mail
chordsukulelecavacokeyboardtabbassdrumsharmonicsflute Guitar Pro
chords

Addicted To Pain

  		
Tuning: C# G# C# F# A# D# 


 intro 
D#--------------------------------------------------------| 
A#--------------------------------------------------------| 
F#--------------------------------------------------------| 
C#--------------------------------------------------------| 
G#--------------------------------------------------------| 
C#-000-121212b-0-101010b--000-666b-333b-------------------|(repeat twice) 

  ----------------------------------------------------------------------------------| 
  ----------------------------------------------------------------------------------| 
  ----------------------------------------------------------------------------------| 
  ----------------------------------------------------------------------------------| 
  -12-------12-------12-------12101312-----12-------12-------12-------12101512------| 
  ---0000013--0000013--0000013--------11h12--0000013--0000013--0000013--------11h12-| 


  Verse 
  ------------------------------------------------------------------------------------------| 
  ------------------------------------------------------------------------------------------| 
  ------------------------------------------------------------------------------------------| 
  ------------------------------------------------------------------------------------------| 
  12-------12-------12-------12-------12101312------12-888888-12-888888-12-888888-12101512--| 
  --0000013--0000013--0000013--0000013---------11h12----------------------------------------| 

  ----------------------7777--------------------------------------8-7--| 
  ---------12-----------------------------------------------------8-7--| 
  -9-999999--999999-7777----3333-2222--9-000000-9-000000-9-000000-8-7--|(repeat twice) 

  Chorus 
  ------------------------------------------------------------------| 
  -3-3-3-3-------------------------6-6-6-6---------3-3-3-3-3-3-3-3--| 
  -2-2-2-2-------------------------5-5-5-5---------2-2-2-2-2-2-2-2--| 
  -0-0-0-0-2-2-2-2-3-3-3-3-3-3-3-3-3-3-3-3-1-1-1-1-0-0-0-0-0-0-0-0--| 
  -0-0-0-0-2-2-2-2-3-3-3-3-3-3-3-3-3-3-3-3-1-1-1-1-0-0-0-0-0-0-0-0--| 
  -0-0-0-0-2-2-2-2-1-1-1-1-1-1-1-1-3-3-3-3-1-1-1-1-0-0-0-0-0-0-0-0--| 

  ------------------------------------------------------| 
  -3-3-3-3-------------------------6-6-6-6---------3----| 
  -2-2-2-2-------------------------5-5-5-5---------2----| 
  -0-0-0-0-2-2-2-2-3-3-3-3-3-3-3-3-3-3-3-3-1-1-1-1-0----| 
  -0-0-0-0-2-2-2-2-3-3-3-3-3-3-3-3-3-3-3-3-1-1-1-1-0----| 
  -0-0-0-0-2-2-2-2-1-1-1-1-1-1-1-1-3-3-3-3-1-1-1-1-0----| 


  ------------------------------------------------------------------------------------| 
  ------------------------------------------------------------------------------------| 
  ------------------------------------------------------------------------------------| 
  ------------------------------------------------------------------------------------| 
  --12-------12-------12--------12101312-----12-------12-------12-------12101513------| 
  ----0000013--0000013--0000013---------11h12--0000013--0000013--0000013--------11h12-| 


  2nd Verse 
  ------------------------------------------------------------------------------------------| 
  ------------------------------------------------------------------------------------------| 
  ------------------------------------------------------------------------------------------| 
  ------------------------------------------------------------------------------------------| 
  12-------12-------12-------12-------12101312------12-888888-12-888888-12-888888-12101512--| 
  --0000013--0000013--0000013--0000013---------11h12----------------------------------------| 

  ----------------------7777--------------------------------------8-7--| 
  ---------12-----------------------------------------------------8-7--| 
  -9-999999--999999-7777----3333-2222--9-000000-9-000000-9-000000-8-7--|(repeat twice) 

  Chorus 
  -----------------------------------------------------------| 
  -3-3-3-3-------------------------6-6-6-6---------3-3-3-3---| 
  -2-2-2-2-------------------------5-5-5-5---------2-2-2-2---| 
  -0-0-0-0-2-2-2-2-3-3-3-3-3-3-3-3-3-3-3-3-1-1-1-1-0-0-0-0---| 
  -0-0-0-0-2-2-2-2-3-3-3-3-3-3-3-3-3-3-3-3-1-1-1-1-0-0-0-0---| 
  -0-0-0-0-2-2-2-2-1-1-1-1-1-1-1-1-3-3-3-3-1-1-1-1-0-0-0-0---| 

  ------------------------------------------------------| 
  -3-3-3-3-------------------------6-6-6-6---------3----| 
  -2-2-2-2-------------------------5-5-5-5---------2----| 
  -0-0-0-0-2-2-2-2-3-3-3-3-3-3-3-3-3-3-3-3-1-1-1-1-0----| 
  -0-0-0-0-2-2-2-2-3-3-3-3-3-3-3-3-3-3-3-3-1-1-1-1-0----| 
  -0-0-0-0-2-2-2-2-1-1-1-1-1-1-1-1-3-3-3-3-1-1-1-1-0----| 


  Bridge 
  ----------------------------------------| 
  ----------------------------------------| 
  ----------------------------------------| 
  ----------------------------------------| 
  ----------------------------------------| 
  -000-121212b-0-101010b--000-666b-333b---| 

  After the Solo: 
  ----------------------------------------------------------------------------| 
  ----------3-3-3-3-------------------------6-6-6-6---------3-3-3-3-3-3-3-3---| 
  ----------2-2-2-2-------------------------5-5-5-5---------2-2-2-2-2-2-2-2---| 
  -8-7-3-2--0-0-0-0-2-2-2-2-3-3-3-3-3-3-3-3-3-3-3-3-1-1-1-1-0-0-0-0-0-0-0-0---| 
  -8-7-3-2--0-0-0-0-2-2-2-2-3-3-3-3-3-3-3-3-3-3-3-3-1-1-1-1-0-0-0-0-0-0-0-0---| 
  -8-7-3-2--0-0-0-0-2-2-2-2-1-1-1-1-1-1-1-1-3-3-3-3-1-1-1-1-0-0-0-0-0-0-0-0---| 

  ------------------------------------------------------| 
  -3-3-3-3-------------------------6-6-6-6---------3----| 
  -2-2-2-2-------------------------5-5-5-5---------2----| 
  -0-0-0-0-2-2-2-2-3-3-3-3-3-3-3-3-3-3-3-3-1-1-1-1-0----| 
  -0-0-0-0-2-2-2-2-3-3-3-3-3-3-3-3-3-3-3-3-1-1-1-1-0----| 
  -0-0-0-0-2-2-2-2-1-1-1-1-1-1-1-1-3-3-3-3-1-1-1-1-0----| 

  then back to the bridge 
	  

Search Paypal
auto scroll beats size up size down change color hide chords drawings
tab show chords e-chords YouTube Clip e-chords hide all tabs e-chords go to top tab