Alpha Blondy

home > Alpha Blondy

Brigadier Sabari (ver.2) Tab

Alpha Blondy

Difficulty: nolevelnolevel

by MarceloBongoMan

tuner correct add songbook print version text version save to e-mail
chordsukulelecavacokeyboardtabbassdrumsharmonicsflute Guitar Pro
chords

Brigadier Sabari (ver.2)

  		Partition transcrite par Soul Rebel 
 
 
 
Guitar   
 
G-5-6-5-----3-5-6-3-3-3----  
D--------5-----------------  
A----------5---------------  
E--------------------------  
 
Some variations on the first part  
G-5-8-5-----3-5-6-3-3-3-----  
D--------5------------------  
A----------5----------------  
E---------------------------  
 
G-5-6-8---5-----3-5-6-3-3-3-  
D------------5--------------  
A--------------5------------  
E---------------------------  
 
G-5-6-8-6-5-----3-5-6-3-3-3-  
D------------5--------------  
A--------------5------------  
E---------------------------  
 
G-5-6-5-6-5-----3-5-6-3-3-3-  
D-------------5-------------  
A---------------5-----------  
E---------------------------  
 
 
Bass  
 
G--------------------------------------------------------  
D--------------------------------------------------------  
A-----8---------------6----------------------------------  
E-6---------------4----------------6---8-9-----6-6-6-----  
 
 
G--------------------------------------------------------  
D--------------------------------------------------------  
A-----8---------------6----------------------------------  
E-6---------------4----------------6---8-9-----6-6-6-----  
 

	  

Search Paypal
auto scroll beats size up size down change color hide chords drawings
tab show chords e-chords YouTube Clip e-chords hide all tabs e-chords go to top tab