Allison

Addissi

Allison

tabs

by  DAPHOLIVEIRA

save to print version add songbook text version e-mail correct tuner
chordsukulelecavacokeyboardtabbassdrumsharmonicaflute Guitar Pro
close

there isn't a video lesson for this song

chords

Addissi

	  		la rola es sencilla y muy repetitiva y el solo esta un poco mal 
y debe ser afinacion normal es un 70 porciento bien ustedes 
vean la 

intro de puro bajo 
todo el tiempo voy cambiando sin saber que esta pasando... 
------------------------------------------------ 
------------------------------------------------   X2 
------------------------------------------------ 
-0-0-0-0-0-0-7-7-7-7-7-7-9-9-9-9-9-9-5-5-5-5-5-5 

para terminar el intro del bajo en el 5 solo es una vez y cuando entra 
la bateria es 00000000000000000000 

cuando entra la guitarra se alarga 

intro con guitarra 

------------------------------------------------ 
------------------------------------------------   X2 
------------------------------------------------ 
-0-0-0-0-0-0-0-0-7-7-7-7-7-7-7-7-9-9-9-9-9-9-9-9-5x5x5x5x5x 


el verso es como el intro de bajo 
------------------------------------------------ 
------------------------------------------------   X2 
------------------------------------------------ 
-0-0-0-0-0-0-7-7-7-7-7-7-9-9-9-9-9-9-5-5-5-5-5-5 

el coro como el intro de guitarra 
------------------------------------------------ 
------------------------------------------------   X2 
------------------------------------------------ 
-0-0-0-0-0-0-0-0-7-7-7-7-7-7-7-7-9-9-9-9-9-9-9-9-5-5-5-5-5-5 

se repite despues del coro el intro con guitarra una sola vez 

solo 
---------------------------------- 
---------------------------------- 
-----7-9------9-11-----5-7-------- X2 
-7-9-----9-11------5-7----0000000- 



este solo una vez 
---------------------------------- 
---------------------------------- 
-----7-9------9-11-----5-7-7-5---- 
-7-9-----9-11------5-7---------7-- 


---------------------------------- 
---------------------------------- 
-----7-9------9-11-----5-7~------- 
-7-9-----9-11------5-7------------ 

el autro es lo mismo del coro pero al final es diferente escuchen 
la cancion para ver el ritmo de la tablatura 

autro 
------------------------------------------------ 
------------------------------------------------   X4 
------------------------------------------------ 
-0-0-0-0-0-0-0-0-7-7-7-7-7-7-7-7-9-9-9-9-9-9-9-9-5-5-5-5-5-5 


al final es asi 
------------------------------------------------ 
------------------------------------------------ 
------------------------------------------------ 
-5-5-5-5-7-7-7-7-9-9-9-9-11-11-11-11-12-12
		  

See also:

tabs Fall Out Boy - Beat It tabs Bad Religion - American Jesus tabs Afi - Miss murder tabs Green Day - Holiday ( Easy Version) tabs Green Day - Time of your life (good ridance) tabs Blink 182 - Stay together for the kids (ver. 2)
e-chords

Other versions:

tabs Allison - Addissi
auto scroll beats size up size down change color hide chords drawings
tab show chords e-chords YouTube Clip e-chords hide all tabs e-chords go to top tab

share