Alkaline Trio

Until Death Do Us Part

Alkaline Trio

tabs

by  JOV-CORREA

save to print version add songbook text version e-mail correct tuner
chordsukulelecavacokeyboardtabbassdrumsharmonicaflute Guitar Pro
close

there isn't a video lesson for this song

chords

Until Death Do Us Part

	  		Intro Chords 
e|-----|----------------------------------------------------------------------------| 
B|-----|-----------------0--------------------------0-------------------------0-----| 
G|--5--|-------5------4-------5---------5-------4--------------5-----5---4----------| 
D|--5--|-------5------5-------5---------5-------5-------3-----5-----5---5-----------| 
A|--3--|------x------x-------x---------x-------x-------3----3-----------------------| 
E|-----|-----5------5-------5---------3-------3---------1------------3---3----------| 

Pre Chorus 
e|---------------------------------|e----------0------0-----------------------------| 
B|---------------------------------|B-------3------3-----3--------------------------| 
G|-----5*--------------------------|G----5------5-----5---------------(Lead Guitar)-| 
D|-----5*--------------------------|------------------------------------------------| 
A|-----3*------(Rhythm Guitar)-----|------------------------------------------------| 
E|---------------------------------|------------------------------------------------| 
Palm Mute* * * * * * * * * * * * * | 

Chorus 
e|------------------------------------------------------------------| 
B|----------------------------0-------------------------------------| 
G|----5--------5------5-----4---------------------------------------| 
D|----5--------5------5-----5---------3-------5---------------------| 
A|----3--------x-------x-----x--------3-------5---------------------| 
E|-------------5-------3-----3--------1-------3---------------------| 

Pre Verse (Lead Guitar) 
e|---------------------------------------------------------------------------------| 
B|---------------------------------------------------------------------------------| 
G|---5--------------------9----- 7---5----5-----5----7--9----7----5----------------| 
D|-------5----2----------x------x----x-------5-----------x----x----x---------------| 
A|------------------5-----7-----5----3--------------------7----5---3---------------| 
E|---------------------------------------------------------------------------------| 

Verse 
e|-------------------------------------------------------------------------| 
B|--------------------0---------------------------0------------------------| 
G|---5---5----5-----4-------------5------5-----4---------------------------| 
D|---5---5----5-----5--------3----5-----5-----5----------------------------| 
A|---3----x----x-----x-------3----3------x-----x---------------------------| 
E|--------5----3-----3-------1-----------3-----3---------------------------| 

Solo 
e|-----------------------------------------------------------------------------------| 
B|-----------------------------------------------------------------------------------| 
G|---5---5----5-----4-------------5------5-----4-------------------------------------| 
D|--x---x---x----x---x----x---x/-x\-x----x\x\x/x---x-----x---x---x---x----x---x------| 
A|--3---5---7---5---x----3---5/10\8----7\5\3/5--2-----3---2---3---8---7---5----------| 
E|-----------------------------------------------------------------------------------| 

Key: 
* = Palm Mute 
/ = Slide Up 
\ = Slide Down 
x = Mute 

this tab found it in a video and I applied and corrected some parts, I hope you find  
they served, Greetings 
My english sucks 
		  

See also:

tabs Blink 182 - Down tabs Blink 182 - Feeling This tabs Green Day - Good riddance(time of your life) tabs Blink 182 - Dammit tabs Social Distortion - Story Of My Life tabs Ramones - What A Wonderful World
e-chords

Other versions:

tabs Alkaline Trio - Until Death Do Us Part
auto scroll beats size up size down change color hide chords drawings
tab show chords e-chords YouTube Clip e-chords hide all tabs e-chords go to top tab

share with facebook