Alexandre Desplat

Lilys Theme

Alexandre Desplat

tabs

by  ROBEPOIEL

save to print version add songbook text version e-mail correct tuner
chordsukulelecavacokeyboardtabbassdrumsharmonicaflute Guitar Pro
close

there isn't a video lesson for this song

chords

Lilys Theme

	  		


INTRO 
e|---------------------------------------------------------0--3-----------5--| 
B|--------5-----5-----0------------------------8-------------------------5---| 
G|----------------7-5------------------------9---9---------0--4---------5----| 
D|----7---------------------7------------7-------------7------------7--------| 
A|--0---------------------0------------0-------------0------------0----------| 
E|---------------------------------------------------------------------------| 

e|--------3---5--7--8--7-------0--3---------5---------3---------5--| 
B|-------3---------------------------------------------------------| 
G|------4-----5--7--9--5-------0--4------5---------4---------5-----| 
D|-----------------------------------------------------------------| 
A|--0----------------------0----------0---------0---------0--------| 
E|-----------------------------------------------------------------| 

MAIN THEME 
e|------------0--0-------------------------------0--3--0-----0--3--------5--| 
B|------------------3--1--0----------------------------0---------------6----| 
G|--0--2------------0--0--0------2-----0--2------------0-----0--4-----------| 
D|-----2-------------------------3--------2-------------------------0-------| 
A|--0--0--0---------0-----0---0-----0-----0--0------------------------------| 
E|--------------------------------------------------------------------------| 

e|------3---------------------------------------------------------| 
B|-----0-----0--1--0----------------------------------------------| 
G|---------2----2----2---2------0---------2----------0---------2--| 
D|--2-----------3------------2----------3--------------------2----| 
A|--------------0---------------------5-----------2--------0------| 
E|-----------------------3----------------------0-----------------| 

e|----------------------------------------------------------------| 
B|--0--1--3--1--0----------1-------0------0---1---0---------------| 
G|---------------------0---2-----------2------2------2---2-----0--| 
D|--0--2--3--2--0---2------3------------------3-------------2-----| 
A|-------------------------0------------------0-------------------| 
E|-----------------------------3-------------------------3--------| 

e|--------------------------------0---5--| 
B|-----------------------------1---------| 
G|------2----------0---------2--------5--| 
D|----3--------------------2-------------| 
A|--5-----------2--------0---------------| 
E|------------0--------------------------| 
		  

See also:

tabs Ira! - Envelheço na Cidade tabs Deep Purple - Smoke On Water tabs Ira! - Inundação de Amor tabs Deep Purple - Stormbringer tabs Deep Purple - Money Talks tabs Ira! - A vida por um fio
e-chords

Other versions:

tabs Alexandre Desplat - Lilys Theme
auto scroll beats size up size down change color hide chords drawings
tab show chords e-chords YouTube Clip e-chords hide all tabs e-chords go to top tab

share