Alex Clare

Hope Shell Be Happier

Alex Clare

tabs

by  CARLLUZ

save to print version add songbook text version e-mail correct tuner
chordsukulelecavacokeyboardtabbassdrumsharmonicaflute Guitar Pro
close

there isn't a video lesson for this song

chords

Hope Shell Be Happier

	  		
Intro 
  1  +  2  +  3  +  4  +1  +  2  +  3  +  4  +1  +  2  +  3  +  4  +1  +  2  +  3  +  4  +   
e| ------2-----------2-----------3-----------3-----------2-----------2-----------2-----------2-----| 
B| ------------------------------------------------------------------------------------------------| 
G| 2-----------2-----------3-----------3-----------2-----------2-----------2-----------2-----------| 
D| ---0-----0-----0-----0-----0-----0-----0-----0-----0-----0-----0-----0-----0-----0-----0-----0--|  (x2) 
A| ------------------------------------------------------------------------------------------------| 
E| ------------------------------------------------------------------------------------------------| 

verse 1 
  1  +  2  +  3  +  4  +1  +  2  +  3  +  4  +1  +  2  +  3  +  4  +1  +  2  +  3  +  4  +   
e| ------2-----------2-----------3-----------3-----------2-----------2-----------2-----------2-----| 
B| ------------------------------------------------------------------------------------------------| 
G| 2-----------2-----------3-----------3-----------2-----------2-----------2-----------2-----------| 
D| ---0-----0-----0-----0-----0-----0-----0-----0-----0-----0-----0-----0-----0-----0-----0-----0--|  (x7) 
A| ------------------------------------------------------------------------------------------------| 
E| ------------------------------------------------------------------------------------------------| 

  1  +  2  +  3  +  4  +1  +  2  +  3  +  4  +1  +  2  +  3  +  4  +1  +  2  +  3     4 
e| ------2-----------2-----------3-----------3-----------2-----------2-----------2-----------------| 
B| ------------------------------------------------------------------------------------------------| 
G| 2-----------2-----------3-----------3-----------2-----------------------2-----------2-----------| 
D| ---0-----0-----0-----0-----0-----0-----0-----0-----0-----0-----0-----------0-----0--------------| 
A| ------------------------------------------------------------------------------------------------| 
E| ------------------------------------------------------------------------------------------9/----| 

Chorus 1 
    1  +  2  +     1   +  2   +          1  +  2  +  3  +  4  +1  +  2  +  3  +  4    
e| -------------------------------------------------2-----------2-----------2-----------------| 
B| --------3-----------------3----------------------------------------------------------------| 
G| -----------3------------------3------------2-----------2-----------2-----------2-----------| 
D| -----0-----------------0-------------------0--0-----0-----0-----0--0--0-----0-----0--------|   
A| -------------------------------------------------------------------------------------------| 
E| -\3----------------3-----------------------------------------------------------------10/---| 

    1  +  2  +     1   +  2   +          1  +  2  +  3  +  4  +1  +  2  +  3  +  4  +      
e| -------------------------------------------------2-----------2-----------2-----------2-----| 
B| --------3-----------------3----------------------------------------------------------------| 
G| -----------3------------------3------------2-----------2-----------2-----------2-----------| 
D| -----0-----------------0-------------------0--0-----0-----0-----0--0--0-----0-----0--------|   
A| -------------------------------------------------------------------------------------------| 
E| -\3----------------3--------------------------------------------------------------------10/| 

    1  +  2  +     1   +  2   +          1  +  2  +  3  +  4  +1  +  2  +  3  +  4  +      
e| -------------------------------------------------2-----------2-----------2-----------2-----| 
B| --------3-----------------3----------------------------------------------------------------| 
G| -----------3------------------3------------2-----------2-----------2-----------2-----------| 
D| -----0-----------------0-------------------0--0-----0-----0-----0--0--0-----0-----0-----0--|   
A| -------------------------------------------------------------------------------------------| 
E| -\3----------------3-----------------------------------------------------------------------| 

  1  +  2  +  3  +  4  +1  +  2  +  3  +  4  +1  +  2  +  3  +  4  +1  +  2  +  3  +  4  +   
e| ------2-----------2-----------3-----------3-----------2-----------2-----------2-----------2-----| 
B| ------------------------------------------------------------------------------------------------| 
G| 2-----------2-----------3-----------3-----------2-----------2-----------2-----------2-----------|  
D| ---0-----0-----0-----0-----0-----0-----0-----0--0--0-----0-----0-----0--0--0-----0-----0-----0--|   
A| ------------------------------------------------------------------------------------------------| 
E| ------------------------------------------------------------------------------------------------| 

verse 2 

  1  +  2  +  3  +  4  +1  +  2  +  3  +  4  +1  +  2  +  3  +  4  +1  +  2  +  3  +  4  +   
e| ------2-----------2-----------3-----------3-----------2-----------2-----------2-----------2-----| 
B| ------------------------------------------------------------------------------------------------| 
G| 2-----------2-----------3-----------3-----------2-----------2-----------2-----------2-----------| (x3) 
D| 0--0-----0-----0-----0--0--0-----0-----0-----0--0--0-----0-----0-----0--0--0-----0-----0-----0--|   
A| ------------------------------------------------------------------------------------------------| 
E| ------------------------------------------------------------------------------------------------| 

  1  +  2  +  3  +  4  +1  +  2  +  3  +  4  +1  +  2  +  3  +  4  +1  +  2  +  3  +  4   
e| ------2-----------2-----------3-----------3-----------2-----------2-----------2-----------------| 
B| ------------------------------------------------------------------------------------------------| 
G| 2-----------2-----------3-----------3-----------2-----------2-----------2-----------2-----------|  
D| 0--0-----0-----0-----0--0--0-----0-----0-----0--0--0-----0-----0-----0--0--0-----0--------------|   
A| ------------------------------------------------------------------------------------------------| 
E| ------------------------------------------------------------------------------------------10/---| 

Chorus 2 

    1  +  2  +  (3 + ) 4     1   +  2   +  (3)  + 1  +  2  +  3  +  4  +  1  +  2  +  3  +  4  +      
e| ----------------------------------------0-----------------2-----------2-------------2-----------2------| 
B| -----------3---------------------3--------------3------------------------------------------------------| 
G| ---------------------3--------------3---------------2-----------2-------------2-----------2------------| 
D| --------0-------------------------------------------0--0-----0-----0-----0----0--0-----0-----0---------|   
A| -----1------------------------1------------------------------------------------------------------------| 
E| -\3------------------------3-----------------------------------------------------------------------10/-| 

    1  +  2 (+  3  +)4  +    1   +   2   + (3 +) 4 (+)   
e| --------------------------------------------------------|-----------2------------------------|} 
B| --------3----------------------------3------------------|---3--------------------------------|} 
G| ----------------------3------------------3--------------|---2--------------------------------|} 
D| --------0----------0------------------------------------|-----0------------------------------|}  
A| -----1---------------------------0----------------------|------------------------------------|} 
E| -\3--------------------------3-------------------3------|------------------------------------|} 
                                              {Ritard} 
		  

See also:

tabs The Beatles - Yesterday tabs Eagles - Take It Easy tabs Eric Clapton - Tears In Heaven (ver. 3) tabs Deep Purple - Smoke On The Water tabs Deep Purple - Highway Star tabs The Shadows - Apache
e-chords

Other versions:

tabs Alex Clare - Hope Shell Be Happier
auto scroll beats size up size down change color hide chords drawings
tab show chords e-chords YouTube Clip e-chords hide all tabs e-chords go to top tab

share