Alejandro Filio

home > Alejandro Filio

Mi Todo Tab

Alejandro Filio

Difficulty: BeginnerBeginner

by JESSBT

tuner correct add songbook print version text version save to e-mail
chordsukulelecavacokeyboardtabbassdrumsharmonicsflute Guitar Pro
chords

Mi Todo

(Alejandro filio)

  		Hola,:P esta es mi primera transcripcion en la cuerda, 
y pues a ver si les gusta 
la version que ya estaba, esta muy buena, 
pero me gusta mas esta. 
Esta rola se la dedico a todo aquel que este enamorado 
y que tenga ganas de ser cursi xD 
sin mas preangulos aqui les va la cancion. 


Intro X4 
     A 
e|-------------------------0----------------------| 
B|-------------2h0--0---------0-----0h2h0---------| 
G|----------2----------2---------2----------2-----| 
D|-------2----------------------------------------| 
A|---0--------------------------------------------| 
E|------------------------------------------------| 

*Aqui empieza la cancion* 
A)   A                                          E 
e|-------------------------------------------------------------- 
B|-------------2h0--0---------------2h0--0----------------0----- 
G|----------2----------2---------2-----------2---------1------1- 
D|-------2--------------------2---------------------2----------- 
A|---0--------------------0---------------------2--------------- 
E|-------------------------------------------------------------- 
            Porque el todo se aplaza desde ayer para luego 
 F#m                  C#sus2              G#m 
------------------2--------------------4--------------------4--- 
------------2------------------4----------------------4--------- 
---------2-----2------------6-------6--------------4-----4------ 
-----4-------------------6----------------------6--------------- 
-4--------------------4----------------------6------------------ 
------------------------------------------4--------------------- 
porque rondo la casa y otra vez desespero 
                A         A/G# 
------------------------------------------------------- 
-----------------------2--------2-------------------------- 
-6------------------2--------2------------------------- 
----4-------------------------------------------------- 
----------------0---------0--------------------------------- 
----------------0---------4--------------------------------- 
antes de que amanezca 
 A/F#   E 
------------------------------------ 
-------2------0---------0---------- 
----2------1---------1-----1h2p1-- 
------------------2---------------- 
-0------2------2------------------- 
-2------0------0------------------- 
todo menos tu cuerpo. 

Intro X2 

A) 
Porque nada es mi todo 
si no hay nada contigo 
porque el tiempo es recodo 
y otro modo al olvido 
que no entiendo tus ojos 
ni tu voz adivino. 

Intro X1 

B)       F#m 
---------2--------------------------- 
---------2--------------------------- 
---------2--2------------------------ 
---------4-----4--------------------- 
---------4--------4------------------- 
---------2---------------0--2--4----- 
¿Qué me espera mañana? 
   E          F#m 
--------------------------------2- 
--------------------------2------ 
-----------1-----------2-----2---- 
--------2-----------4------------ 
-----2-----------4--------------- 
--0-----------2------------------ 
Si despierto encendido 
  E           F#m 
--------------------------------2- 
--------------------------2------- 
-----------1-----------2-----2---- 
--------2-----------4------------- 
-----2-----------4---------------- 
--0-----------2------------------- 
con el sol en la cara 
  C#sus2         Bsus2          A         E 
--------------------------------------------------------- 
--------------4--------------2--------2-----------0------ 
-----------6--------------4---------2----------1----1h2p1 
--------6--------------4----------2---------2------------ 
-----4--------------2-----------0--------2--------------- 
--4--------------2--------------------------------------- 
y mis ganas contigo 

B) 
voy a andar la ventana 
para ahogar mi sentido 
y que venga la calma 
para darme el alivio. 

A) 
Porque a veces divago 
en el olor de tu ropa 
porque viajo despacio 
de tu cama a tus cosas 
como buscando el paso 
 A F#m  E 
----------------------------------------------- 
-------2------0---------0-------------------0- 
----2------1---------1-----1h2p1--------1---- 
------------------2-------------------2------- 
-0------2------2-------------------2---------- 
-2------0------0------------------------------ 
que me vuelva a tu boca 

A9                       E 
---------------------------------------------------- 
--------0--0--0--------------0--0--0---------------- 
--------2--2--2--2-----------1--1--1---------------- 
-----2--------------2-----2------------2------------ 
---------------------------------------------------- 
--0--------------------0-------------------0--2--4-- 
todo pierde su luz       buscándote 
    Bsus4                 C#sus4      A          E 
--------2------------------4-------------------------------- 
----------------2------------------4--------0h2------------- 
-----4-------4----------6-------6--------2-------------1h2-- 
----------4------------------6--------2-------------2------- 
-------------------------------------------------2---------- 
--2------------------4-------------------------------------- 
y al centro quedas tu luna quemante. 

A) 
Porque estas en mi frente 
confundiendo a las horas 
porque vuelves silente de las luz a las sombras 
descomponiendo todo 
Intro 
cuando un verso te nombra, 
  Asus4       A           A9                A rasgueo 
-------------------------------------------|0|------------ 
-----------3-----------2-----------0-------|2|------------ 
--------2-----------2-----------2----------|2|------------ 
-----2-----------2-----------2-------------|2|------------ 
--0-----------0-----------0----------------|0|------------ 
-------------------------------------------|0|------------ 
cuando un verso te nombra. 

	  

Full key step upFull key step up
Half key step upHalf key step up
Half key step downHalf key step down
Full key step downFull key step down
Search Paypal
auto scroll beats size up size down change color hide chords drawings
tab show chords e-chords YouTube Clip e-chords hide all tabs e-chords go to top tab