Alejandro Filio

home > Alejandro Filio

Este Cannon Tab

Alejandro Filio

Difficulty: nolevelnolevel

by charlo1

tuner correct add songbook print version text version save to e-mail
chordsukulelecavacokeyboardtabbassdrumsharmonicsflute Guitar Pro
chords

Este Cannon

(Alejandro Filio)

  		      A       E        F#m       C#m7       D       A         D/F# 
e|----------------------------------4---------0--------------------0----- 
b|-2---2-----0---0-----2---2-----5--5-----3---3----2---2h3---3---3-3----- 
g|-2---2-----1---1-----2---2-----4----4-----2---2--2---2-----2---2------- 
D|---2---2-----2---2-----4---4-----6------0----------2---------0--------- 
A|-0-----------------------------4-----------------0--------------------- 
E|-----------0---------2-------------------------------------2----------- 

E     Esus   A         E        F#m       C#m7       D        A          
e---------------------------------------------4---------0-------------- 
B-0------—---2---2-----0---0-----2---2-----5--5-----3---3----2---2h3--- 
G-1---2-1----2---2-----1---1-----2---2-----4----4-----2---2--2---2----- 
D---2-2-2------2---2-----2---2-----4---4-----6------0----------2------- 
A------------0-----------------------------4-----------------0--------- 
E-0--------------------0---------2------------------------------------- 
       
      A       E        F#m       C#m7       D       A         D/F# 
e|----------------------------------4---------0--------------------0----- 
b|-2---2-----0---0-----2---2-----5--5-----3---3----2---2h3---3---3-3----- 
g|-2---2-----1---1-----2---2-----4----4-----2---2--2---2-----2---2------- 
D|---2---2-----2---2-----4---4-----6------0----------2---------0--------- 
A|-0-----------------------------4-----------------0--------------------- 
E|-----------0---------2-------------------------------------2----------- 

E     Esus   A         E        F#m       C#m7       D        A          
e---------------------------------------------4---------0-------------- 
B-0------—---2---2-----0---0-----2---2-----5--5-----3---3----2---2h3--- 
G-1---2-1----2---2-----1---1-----2---2-----4----4-----2---2--2---2----- 
D---2-2-2------2---2-----2---2-----4---4-----6------0----------2------- 
A------------0-----------------------------4-----------------0--------- 
E-0--------------------0---------2------------------------------------- 
           este cannon me recuerda cosas como sus notas    líneas  
    D/F#     
e|-------0------------- 
b|-3---3-3---0------—-- 
g|-2---2-----1---2-1--- 
D|---0---------2-2-2--- 
A|--------------------- 
E|-2---------0--------- 
exactas para dos 

IGUAL PUNTEO 
A              E         F#m      C#m7 
ibas con tu hermana y un amigo 
    D         A           D/F#      E 
y algún cupido     te coqueteaba con tu amor 

   Bm     Bm7/A         E        E (RASGUEO) 
e|-------------------------------0--- 
b|-3--3----3--3---------0---0----0--- 
g|-4--4----2--2---------1---1----1--- 
D|---4--4----4--4---------2---2--2--- 
A|-2-------0---------------------2--- 
E|----------------------0--------0--- 
  yo cantaba cosas para mi ilusión 

     A              D/F#     E  Esus 
e|---------------0--------0----------- 
b|-2---2---2h3---0--3---3-3--0-------- 
g|-2---2---2---3----2---2----1---2-1--  NUEVAMENTE EL PUENTEO DEL INTRO. 
D|---2---2------------0--------2-2-2--  EN CORAZÓN CAEN EN A 
A|-0---------------------------------- 
E|------------------2--------0-------- 
tú me mirabas fusilando al corazón 

NUEVAMENTE EL PUENTEO DEL INTRO 

A            E              F#m   C#m7 
 este cannon es para el recuerdo 
           D      A             D/F#       E 
todo un silencio,    verdad y sueño por amor 
A        E              F#m   C#m    
 fuego entre cadencia y armonía 
             D   A            D/F#          E  
que rara poesía,    luna de invierno luego sol 

Bm                Bm7/A 
  cuerpo contra cuerpo 
       E 
sin limitación 
            A   D/F# 
curada en tiempo 
          D   E       A 
que a su paso  nos unió 

 A    C        G        D        A          C      G         D         
e---------------------------0------------------------------------0----- 
b-----1---1----0---0----3---3----2---2------1---1--0---0-----3---3----- 
g-----0---0----0---0------2---2--2---2------0---0--0---0-------2---2--- 
D-------0---0----0---0--0----------2----------0------0---0---0--------- 
A-0-2-3--------------------------0------0-2-3-------------------------- 
E--------------3-----------------------------------3------------------- 
      nadie sabe    dónde vive el amor     y cuándo nos espera al final  

e|--------------------- 
b|--0---0---0---0----- 
g|--1---1---2---2------   
D|----2---2-2-2---2----   
A|--------------------- 
E|--0------------------ 
de un callejón 

NUEVAMENTE EL PUNTEO 

A            E          F#m     C#m7 
 éste cannon sabe bien su juego 
        D     A         D/F#             E 
roba mi verso    y no pregunta a dónde voy 
A       E             F#m          C#m7  
 deja siempre abierta la esperanza 
       D     A         D/F#         E 
para balanza   en alegría y en dolor 

TAMBIEN ES IGUAL QUE EL OTRO PÁRRAFO 

Bm               Bm7/A 
  guárdame este cannon 
        E 
de principio a fin 
          A F#m 
si te enamoras 
          D     E      F# 
si te encuentras para mí 

e|---------2--------------------------------- 
b|-------3---3---2--------------------------- 
g|-----4-------4----------1------------------  
D|---4------------------2--------------------   
A|-2------------------2---------------------- 
E|------------------0------------------------ 
si te enamoras si te encuentras 

A* E*  F#m  C#m7  D  A  D/F# E   
para    mi 

A* E*  F#m  C#m7  D  A  D/F# E   

EN ESTE FINAL LAS NOTAS A* Y E* DENLE REMATES EN LAS  
CUERDAS BAJAS Y DESPUES UN REMATE EN LAS AGUDAS PARA QUE  
SE ESCUCHE BIEN SI GUSTAN CLARO ESTA. 

		E A D g b e  
A		0 0 2 2 2 0 
E		0 2 2 1 0 0 
F#m		2 4 4 2 2 2 
C#m7		4 4 6 4 5 4 
D		X 0 0 2 3 2 
Esus		0 2 2 2 0 0 
Bm		2 2 4 4 3 2 
Bm7/A		X 0 4 2 3 2 
C		3 3 2 0 1 0 
G		3 2 0 0 3 3  PERO POR LO MIENTRAS 3 2 0 0 0 3 
F#		2 4 4 3 2 2 
A*		5 7 7 6 5 5 
E*		0 7 6 4 5 0 

DUDAS Y/O COMENTARIOS POR FAVOR ESCRIBAN A [email protected]
	  

Full key step upFull key step up
Half key step upHalf key step up
Half key step downHalf key step down
Full key step downFull key step down
Search Paypal
auto scroll beats size up size down change color hide chords drawings
tab show chords e-chords YouTube Clip e-chords hide all tabs e-chords go to top tab