Alejandro Filio

home > Alejandro Filio

Cuentos Compartidos Tab

Alejandro Filio

Difficulty: BeginnerBeginner

by vandcatarino

tuner correct add songbook print version text version save to e-mail
chordsukulelecavacokeyboardtabbassdrumsharmonicsflute Guitar Pro
chords

Cuentos Compartidos

(Alejandro Filio)

  		No digo que las otras trascripciones estén mal 
Pero si son perfeccionistas como yo 
Pueden tocarla como la toca el cantautor filio con todos sus arreglos. 
Cuentos compartidos del maestro trovador Alejandro filio 
Ojala les ayude a ser mejores en tocar esta excelente canción. 
Esta canción va dedicada para la mujer que le dio sentido a la luna 
GISELA YANETH...De su compañero en la vida José Francisco L. Reynaldo. 


INTRO... 
        G     G4                    G5      G4    G   G4   G5 

E-------3-----3----3----------------3-------3---- 3---3----3-----| 
A----------------------------------------------------------------| 
D---------0------------------------------------------------------| 
G-------0--0--0----0-0--------2-0---0--0----0-----0---0----0--0--| 
B-------0-----0h1--0--0-0h1h0-------3----3--0h1---0---0h1--3---3-| 
e----------------------------------------------------------------| 
                G 

E---------------3----3-----3--------| 
A-----------------------------------| 
D-----------------------------------| 
G----------2-0--0----0h2---0--0-----| 
B---0h1h0-------0--------------0----| 
e-----------------------------------| 

       G                  RF/F# 

E--3-------3---3-----2----------2-------| 
A---------------------------------------| 
D---------------------------------------| 
G--0--0----0---0--0---2-----2---2-------| 
B--0----0--0h1-0---0---3--------3---3---| 
E-----------------------2-----------2---| 
Durmió la tarde,    desnuda, sobre la ventana 


     Lam         Dodis           Mim 

E---------------------------------0-------0--0---------| 
A--0---------------------------------------------------| 
D----2-----------1-------------------------------------| 
G-----2------------2-----2-----------0-----------------| 
B-------1 0h1-------1------1----------0------------0---| 
E------------0-------2----2---0----0------3—-3h2h0-----| 
Afuera nadie,   ni luces, ni palomas blancas. 


    C                      G 

E---------------------------------3--------------------------| 
A---3--------------3-----------------------------------------| 
D-------------------------------------------0---2--4---------| 
G---0---0------0----0----------------0----------------0------| 
B---1-- -1----1----1--------------3---3--0--0---1--3----3----| 
E---0-----0--0--------0-----------3----3---—---------0---0---| 
No juega el viento,no se platican las campanas. 

   D*                     C                D/F#       G 

E----------------------------------------------2----------3---------| 
A----------------------------3--------------------------------------| 
D--0----------------------------------------------------------------| 
G---2------------------------0--0--0------0-----2--2---2-----0------| 
B----3-------3-----3-----3---1---1—-0h1-3--------3-----3--3---3-----| 
e-----0-0h2h0—--0-----5---5--0----0--------3---------2-2--3----3----| 
  todo silencio            si tu me faltas    si tu  me faltas 


   G               D* 
E--3----------------------------------| 
A-------------------------------------| 
D------------------0-------------------| 
G---0---------------2-----------------| 
B----3---------------3--3-3-3---------| 
e-----3---------------2-5-5--5--------| 
   La lluvia llorará conmigo 

     Lam         Dodis           Mim 

E-----------------------------------0-------0--0---------| 
A--0-----------------------------------------------------| 
D----2-----------1---------------------------------------| 
G-----2------------2-----2-------------0-----------------| 
B-------1-0h1-------1------1------------0------------0---| 
E------------0-------2----2-----0----0------3—-3h2h0-----| 
   y calle abajo de los portales enemigos       Salen 

   C                        G 

E-------------------------------3-----------------------------| 
A--3-------3--------------------------------------------------| 
D--------------------------------------------0--2---4---------| 
g----0-----------------------------0--------------------0-----| 
b-----1--------------0----------3----3--0----0--1---3------3--| 
e--0---0---2/3/2h0--------------3-----3---------------0-----0-| 
  al paso, me acosan antes que el olvido 


   D*                     C                D/F#       G 

E------------------------------------------------2----------3---3--3----| 
A------------------------------3----------------------------------------| 
D--0--------------------------------------------------------------------| 
G---2--------------------------0--0--0--------0---2--2---2--0---0---0---| 
B----3-------3-------3-----3---1---1—-0h1--3-------3-----3--0---0h1-0---| 
e-----0-0h2h0—--0h2h0---5---5--0----0----------3-------2-2--------------| 
 Sueños descalzos por el camino,             por    el  camino 


   D*                    C                     G  G4     G 

E----------------------------------------------3--3------3-----| 
A------------------------0h3-----------------------------------| 
D--0-----0---0---0---------------------------------------------| 
G---2--2---2---2----------------0-----0----------0----------0--| 
B----3---3---3---3-------0h1-----1-----1-------0—-0h1—1---0---0| 
e----5---5---5---5----------3-----3-----3------------3---------| 
   Todos tenemos un amor, un tiempo para dar, un ciclo, 
   D*                   C                     G  G4     G 

E---------------------------------------------3--3------3-----| 
A-----------------------0h3-----------------------------------| 
D--0-----0---0---0--------------------------------------------| 
G---2--2---2---2---------------0-----0----------0----0-----0--| 
B----3---3---3---3------0h1-----1-----1-------0—-0h1—---0----0| 
e----5---5---5---5---------3-----3-----3----------------------| 
estamos solos otra vez, o siempre, como en el principio, 

  Dodis           B7              C                 D/F# 

E---------------------------------------------------2----------| 
A-----------------2---------------3----------------------------| 
D--1-----1-1-------4-------------------------------------------| 
G---2--------2------2------2------0---0-----0---------2---2----| 
B----1--------1------4h5-4--4-----1-----1----1—--------3----3--| 
e-----2--3-2---2--------2----2-----------0----0---------2---2--| 
  Dame tu mano,    vuela conmigo, Seremos soledades y cuentos... 


        G     G4                    G5      G4    G   G4   G5 

E-------3-----3----3----------------3-------3---- 3---3----3-----| 
A----------------------------------------------------------------| 
D---------0------------------------------------------------------| 
G-------0--0--0----0-0--------2-0---0--0----0-----0---0----0--0--| 
B-------0-----0h1--0--0-0h1h0-------3----3--0h1---0---0h1--3---3-| 
e----------------------------------------------------------------| 
 Compartidos. 

E---------------3----3----3--------| 
A.---------------------------------| 
D----------------------------------| 
G----------2-0--0----0h2--0--0-----| 
B---0h1h0-------0-------------0----| 
e----------------------------------| 

       G                  RF/F# 

E--3-------3---3------2-------------2---------------| 
A---------------------------------------------------| 
D---------------------------------------------------| 
G--0--0----0---0--0----2-----2-------2--2-2---------| 
B--0----0--0h1-0---0----3-----3------3------3-------| 
E------------------------2-----2---------2---2------| 
Durmió la tarde      y entre su sueño dio con-tigo 

     Lam               D*                            Mim 

E--------------------------------- ------------------0----| 
A-0-------------------------------------------------------| 
D--2-------------------0------ 0---------0----------------| 
G---2------------------2--2------2----2----2-----------0--| 
B-----0-1-3/5----------3---3------3----3----3--3-0------0-| 
E---------------5/7/5--5----5--5---5-----5-----------3---3| 
 Cuando llegaste               la luna tuvo algún sentido 




 Mim       C                        G 
E--0----------------------------------3-----------------------| 
A-----------3------3------------------------------------------| 
D-------------------------------------------------2--4--------| 
G-------------0-----0-----0-----------0--0---------------0—---| 
B--------------1-----1-----1----------3---3---0---1--3----3---| 
e--2h3p2p0--0---0-----0---------------3----3------------0--0--| 
 No soy de  nadie, dijiste para estar conmigo 

    D*                     C                D/F#       G 

E---------------------------------------------2------------3--3--3---3-| 
A.-----------------------------3----------------------------------------| 
D--0--------------------------------------------------------------------| 
G---2--------------------------0--0--0------0---2--2---2------0--0---0--| 
B----3---------3-----3-----3---1---1—-0h1-3------3-----3------0--0h1-0--| 
e-----0-0h2h0—--0h2h0---5---5--0----0--------3-------2-2----------------| 
  Si es por amarte        todo lo olvido,  todo      lo   olvido. 


   D*                  C                      G   G4      G 

E---------------------------------------------3---3---3-------| 
A-----------------------0h3-----------------------------------| 
D--0-----0---0---0--------------------------------------------| 
G---2--2---2---2---------------0-----0----------0-------0-----| 
B----3-—-3---3---3------0h1-----1-----1-------0—--0h1-0---0---| 
e----5---5---5---5---------3-----3-----3----------------------| 
  Todos tenemos un amor, un tiempo para dar, un ciclo, 


   D*                  C                      G   G4      G 

E---------------------------------------------3---3---3-------| 
A-----------------------0h3-----------------------------------| 
D--0-----0---0---0--------------------------------------------| 
G---2--2---2---2---------------0-----0----------0-------0-----| 
B----3-—-3---3---3------0h1-----1-----1-------0—--0h1-0---0---| 
e----5---5---5---5---------3-----3-----3----------------------| 
Estamos solos otra vez, o siempre, como en el principio, 


  Dodis            B7               C                D/F# 

E-----------------------------------------------------2----------| 
A.-----------------2----------------3----------------------------| 
D--1-----1-1--------4--------------------------------------------| 
G---2--------2--------2------2------0---0-----0---------2---2----| 
B----1--------1--------4h5-4--4-----1-----1----1---------3----3--| 
e-----2--3-2---2----------2----2-----------0----0---------2---2--| 
  Dame tu mano,      vuela conmigo  Seremos soledades y cuentos 


     G    G4          D/F#                    B7 

E----3-----3----3------2--------2---2----------------------| 
A----------------------------------------------2-----------| 
D------0----------------------------------------4----------| 
G----0--0--0----0-0-------0-0--------------------2-------2-| 
B----0-----0h1--0--0-------0-----------0--3----4--4H5-4--4-| 
e--------------------------------3--2--------------2----2--| 
Compartidos          Dame tu mano,       vuela conmigo 

    C                D/F# 

E--------------------2------------| 
A--3------------------------------| 
D---------------------------------| 
G--0---0-----0---------2---2------| 
B--1-----1----1---------3----3----| 
e---------0----0---------2---2----| 
Seremos soledades     y cuentos 


        G     G4                    G5      G4    G   G4   G5 

E-------3-----3----3----------------3-------3---- 3---3----3-----| 
A----------------------------------------------------------------| 
D---------0------------------------------------------------------| 
G-------0--0--0----0-0--------2-0---0--0----0-----0---0----0--0--| 
B-------0-----0h1--0--0-0h1h0-------3----3--0h1---0---0h1--3---3-| 
e----------------------------------------------------------------| 
Compartidos  hoo hoo 


                G             G 

E---------------3----3-----3--3------| 
A.-----------------------------2-----| 
D-------------------------------0----| 
G----------2-0--0----0h2---0-0---0---| 
B---0h1h0-------0-------------0---3--| 
e----------------------------------3-| 
Umm uu umm u… 


Hay tienen escúchenla bien y sean observadores 
en las notas por que los arreglos cambian OK. 

Hasta la siguiente vez...
	  

Search Paypal
auto scroll beats size up size down change color hide chords drawings
tab show chords e-chords YouTube Clip e-chords hide all tabs e-chords go to top tab