Albert Hammond Jr

Gfc

Albert Hammond Jr

tabs Advanced advanced

by  JOAOEWERTON

save to print version add songbook text version e-mail correct tuner
chordsukulelecavacokeyboardtabbassdrumsharmonicaflute Guitar Pro
close

there isn't a video lesson for this song

chords

Gfc

	  		Intro 

e|--------------------------------------------------------| 
B|------------------12----------------------12------------| 
G|-------12------------12----12-------12-------12----12---| 
D|-12h14----(12h)14-------14-------12----12-------12------| 
A|--------------------------------------------------------| 
E|--------------------------------------------------------| 

e|--------------------------------------------------------| 
B|-------------13-----------------------13----------------| 
G|-------12-------12----12--------14-------14----14-------| x4 
D|-12h14----14-------14--------14----14-------14----------| 
A|--------------------------------------------------------| 
E|--------------------------------------------------------| 

e|--------------------------------------------------------| 
B|------------------12----------------------12------------| 
G|-------12------------12----12-------12-------12----12---| 
D|-12h14----(12h)14-------14-------12----12-------12------| 
A|--------------------------------------------------------| 
E|--------------------------------------------------------| 

e|--------------------------------------| 
B|-------------13-------------13-13-----| 
G|-------12-------12----12----14-14-----|  
D|-12h14----14-------14-------14-14-----| 
A|--------------------------------------| 
E|--------------------------------------| 

(0:37) 

   Em          G             C             Am 
e|-0-0--0-0-0--3-3-3--3-3-3--0-0-0--0-0-0--0-0-0--0-0-0----| 
B|-0-0--0-0-0--0-0-0--0-0-0--1-1-1--1-1-1--1-1-1--1-1-1----| 
G|-0-0--0-0-0--0-0-0--0-0-0--0-0-0--0-0-0--2-2-2--2-2-2----| x2 
D|-2-2--2-2-2--0-0-0--0-0-0--2-2-2--2-2-2--2-2-2--2-2-2----| 
A|-2-2--2-2-2--2-2-2--2-2-2--3-3-3--3-3-3--0-0-0--0-0-0----| 
E|-0-0--0-0-0--3-3-3--3-3-3--------------------------------| 


(0:51) 

  Em         G              C             Am 
e|-0---------3--------------0-------------0---------------| 
B|-0---------0--------------1-------------1---------------| 
G|-0---------0--------------0-------------2---------------| x2 
D|-2---------0--------------2-------------2---------------| 
A|-2---------2--------------3-------------0---------------| 
E|-0---------3--------------------------------------------| 

(1:08) 

e|--------------------------------------------------------| 
B|------------------12----------------------12------------| 
G|-------12------------12----12-------12-------12----12---| 
D|-12h14----(12h)14-------14-------12----12-------12------| 
A|--------------------------------------------------------| 
E|--------------------------------------------------------| 

e|--------------------------------------------------------| 
B|-------------13-----------------------13----------------| 
G|-------12-------12----12--------14-------14----14-------|  
D|-12h14----14-------14--------14----14-------14----------| 
A|--------------------------------------------------------| 
E|--------------------------------------------------------| 

e|--------------------------------------------------------| 
B|------------------12----------------------12------------| 
G|-------12------------12----12-------12-------12----12---| 
D|-12h14----12h14---------14-------12----12-------12------| 
A|--------------------------------------------------------| 
E|--------------------------------------------------------| 

e|--------------------------------------| 
B|-------------13-------------13-13-----| 
G|-------12-------12----12----14-14-----|  
D|-12h14----14-------14-------14-14-----| 
A|--------------------------------------| 
E|--------------------------------------| 

(1:23) 

e|-7--------7--------8--------5--------7--------7--------8---------------| 
B|-8--------8--------8--------5--------8--------8--------8-------13------| 
G|-9--------7--------9--------5--------9--------7--------9-------14------| 
D|---------------------------------------------------------------14------| 
A|-----------------------------------------------------------------------| 
E|-----------------------------------------------------------------------| 

   Em          G             C             Am 
e|-0-0--0-0-0--3-3-3--3-3-3--0-0-0--0-0-0--0-0-0--0-0-0----| 
B|-0-0--0-0-0--0-0-0--0-0-0--1-1-1--1-1-1--1-1-1--1-1-1----| 
G|-0-0--0-0-0--0-0-0--0-0-0--0-0-0--0-0-0--2-2-2--2-2-2----| x2 
D|-2-2--2-2-2--0-0-0--0-0-0--2-2-2--2-2-2--2-2-2--2-2-2----| 
A|-2-2--2-2-2--2-2-2--2-2-2--3-3-3--3-3-3--0-0-0--0-0-0----| 
E|-0-0--0-0-0--3-3-3--3-3-3--------------------------------| 

  Em         G              C             Am 
e|-0---------3--------------0-------------0---------------| 
B|-0---------0--------------1-------------1---------------| 
G|-0---------0--------------0-------------2---------------| x2 
D|-2---------0--------------2-------------2---------------| 
A|-2---------2--------------3-------------0---------------| 
E|-0---------3--------------------------------------------| 

Solo (2:08) 

e|-10b12r-7--14b16r-10--17b19r-15-19---15-12-10h12p10---| 
B|------------------------------------------------------| 
G|------------------------------------------------------| 
D|------------------------------------------------------| 
A|------------------------------------------------------| 
E|------------------------------------------------------| 

e|-10b12r-7--14b16r-10-17-17b19--15---15-12----12-------------------------| 
B|------------------------------------------15----15-12-------12----------| 
G|------------------------------------------------------14b16----14-12----| 
D|---------------------------------------------------------------------14-| 
A|------------------------------------------------------------------------| 
E|------------------------------------------------------------------------| 

e|---------------------------------------------------------------------| 
B|-12----12---------------12----12------------------12-12-------12-12--| 
G|-14b16----14-12---------14b16----14-12------14b16-------14b16--------| 
D|----------------14---14----------------14----------------------------| 
A|---------------------------------------------------------------------| 
E|---------------------------------------------------------------------| 


e|-------------------------------------------------------------------------| 
B|-------12-12-------12-12-------12-12-------12-12-------12-12-------12-12-| 
G|-14b16-------14b16-------14b16-------14b16-------14b16-------14b16-------| 
D|-------------------------------------------------------------------------| 
A|-------------------------------------------------------------------------| 
E|-------------------------------------------------------------------------| 

e|-12-----12-----12-------15----15----15-------17----17----17--17------| 
B|-15b17--15b17--15b17----18b20-18b20-18b20----19b21-19b21-----19b21---| 
G|---------------------------------------------------------------------| 
D|---------------------------------------------------------------------| 
A|---------------------------------------------------------------------| 
E|---------------------------------------------------------------------| 

e|-------12-------15-------17----17-------| 
B|-12h15----15h17----17h20----20----17----| 
G|----------------------------------------| 
D|----------------------------------------| 
A|----------------------------------------| 
E|----------------------------------------| 

(2:38) 

e|-----------------------------------------15b17-15b17-15b17--| 
B|-(17)--15--12----12-15-12-15-17--15--12---------------------| 
G|------------------------------------------------------------|  
D|------------------------------------------------------------| 
A|------------------------------------------------------------| 
E|------------------------------------------------------------| 

e|-----------------------------------12-------15-------17-----| 
B|-17--15--12----12-15-12-15---12h15----15h17----17h20--------| 
G|------------------------------------------------------------|  
D|------------------------------------------------------------| 
A|------------------------------------------------------------| 
E|------------------------------------------------------------| 

(2:53) 

e|--------------------------------------------------------| 
B|------------------12----------------------12------------| 
G|-------12------------12----12-------12-------12----12---| 
D|-12h14----(12h)14-------14-------12----12-------12------| 
A|--------------------------------------------------------| 
E|--------------------------------------------------------| 

e|--------------------------------------------------------| 
B|-------------13-----------------------13----------------| 
G|-------12-------12----12--------14-------14----14-------|  
D|-12h14----14-------14--------14----14-------14----------| 
A|--------------------------------------------------------| 
E|--------------------------------------------------------| 

e|--------------------------------------------------------| 
B|------------------12----------------------12------------| 
G|-------12------------12----12-------12-------12----12---| 
D|-12h14----(12h)14-------14-------12----12-------12------| 
A|--------------------------------------------------------| 
E|--------------------------------------------------------| 

e|--------------------------------------| 
B|-------------13-------------13-13-----| 
G|-------12-------12----12----14-14-----|  
D|-12h14----14-------14-------14-14-----| 
A|--------------------------------------| 
E|--------------------------------------| 



| r  release 
| h  hammer-on 
| p  pull-off 
| b  bend 
		  

Full key step upFull key step up
Half key step upHalf key step up
Half key step downHalf key step down
Full key step downFull key step down
hide glossary

See also:

tabs Bon Jovi - Wanted dead or Alive tabs Guns N' Roses - Estranged tabs Kiss - Forever tabs The Doors - Roadhouse Blues tabs Guns N' Roses - Bohemian Rhapsody tabs Van Halen - Pretty Woman
e-chords

Other versions:

tabs Albert Hammond Jr - Gfc
auto scroll beats size up size down change color hide chords drawings
tab show chords e-chords YouTube Clip e-chords hide all tabs e-chords go to top tab

share