Alan

Inevitable

Alan

tabs

by  CARLFELIX

save to print version add songbook text version e-mail correct tuner
chordsukulelecavacokeyboardtabbassdrumsharmonicaflute Guitar Pro
close

there isn't a video lesson for this song

chords

Inevitable

(Luca Chiaravalli, Alan, Monica Vélez)

	  		E--------------------------------------------------------- 
B--------------3-------------------------3---------------- 
G-------0-------------0------------0----------0----------- 
D----4-----4------4------4------4-----4----4-----4-------- 
A--5--------------------------5--------------------------- 
E--------------------------------------------------------- 

E--------------------------------------------------------- 
B--------------3-------------------------3---------------- 
G-------0-------------0------------0---------------------- 
D----4-----4------4------4------4-----4----4-------------- 
A--5--------------------------5--------------------------- 
E--------------------------------------------------------- 

Dudas, comentarios, seran bien recibidas 
[email protected]
		  

See also:

tabs Reyli - Hasta que amanezca tabs RBD - Aburrida y Sola tabs Fobia - Hipnotizame tabs RBD - Rebelde (ver. 2) tabs Alberto Escobar - Coincidir tabs RBD - Vivendo de noche
e-chords

Other versions:

tabs Alan - Inevitable
auto scroll beats size up size down change color hide chords drawings
tab show chords e-chords YouTube Clip e-chords hide all tabs e-chords go to top tab

share