Alan Jackson

Usa Today

Alan Jackson

tabs

save to print version add songbook text version e-mail correct tuner
chordsukulelecavacokeyboardtabbassdrumsharmonicaflute Guitar Pro
close

there isn't a video lesson for this song

chords

Usa Today

Year: 2004 - Album: What I Do

	  		INTRO 
 
 
E----------------------------------------------------------------- 
B---------------------5-------------------------------5h7-9br-7--- 
G------------4-4------4bh-4r-----------4-4---------4/6---------9-- 
D-----2-4-4/6-6-64p2---------64-2-4/6-6-64-2-2----------------- 
A--2h4-2-2-------------------------------------------------------- 
E----------------------------------------------------------------- 
 
 
E--------------------------------------| 
B---9br-7---------------9---9-9-9-9----| 
G--6-----9-11-11pbr-9---9---9-9-9-9----| 
D-----------------------9bh-9-9-9-9r---| 
A--------------------------------------| 
E--------------------------------------| 
 
 
 
RIFF AT 00:30 
 
 
E---------------------------| 
B-------------------4-4h5---| 
G-------------4-4---4-4-----| 
D--------2---4--4h6---4h6---| 
A-----2-4-4/6---------------| 
E--2/4----------------------| 
 
 
 
RIFF AT 00:37 
 
 
E--------------------| 
B--------------------| 
G--------------------| 
D-----2---------2----| 
A--2/4-4p2p0-2/4-----| 
E----------------0---| 
 
 
 
RIFFS FROM 00:40 
 
 
E-------------------------0---0-----------------| 
B-------------------------5---5-----------------| 
G---------------------4---4/6-4/6------4--------| 
D----------------2-4/6-------------4---4--------| 
A---2bh-2r-p0-2/4------------------4h6--64-2---| 
E--0---0----------------------------------------| 
 
 
 
RIFFS FROM 1:38 
 
 
E--------------------------------------------2--------------| 
B---------------------------------------------5----0-7-7----| 
G----------4h-4-4-2br---2-----------------4bh--4r----6-6b---| 
D-----2---2--------------2p1p0---2-------2------------------| 
A--2h4------------------------2/4-4p2-----------------------| 
E------0-----------------------------0----------------------| 
 
 
 
 
ENDING 
 
 
E--------------------------------------------------------------- 
B--------------------5------------------------------5-0-9br-7--- 
G------------4-4-----4br---------4-6-------------4/6---------9-- 
D-----2-4-4/6-6-64-2-----2-2-4/6---64-2-4/6-2----------------- 
A--2h4-2-2------------------------------------------------------ 
E--------------------------------------------------------------- 
 
 
E---------------------------------------| 
B--7-9br-7---------------9---9-9-9-9----| 
G---6-----9-11-11pbr-9---9---9-9-9-9----| 
D------------------------9bh-9-9-9-9r---| 
A---------------------------------------| 
E---------------------------------------| 
 
 
 
 

		  

See also:

tabs John Denver - Sunshine On My Shoulders tabs Randy Travis - 3 Wooden Crosses tabs Theme Songs - King Of The Hill tabs Lester Flatt - Dueling Banjos tabs John Denver - Take Me Home, Country Roads tabs Alan Jackson - Summertime Blues
e-chords

Other versions:

tabs Alan Jackson - Usa Today
auto scroll beats size up size down change color hide chords drawings
tab show chords e-chords YouTube Clip e-chords hide all tabs e-chords go to top tab

share