Alabama Shakes

Be Mine

Alabama Shakes

tabs

by  GUSTSILVA

save to print version add songbook text version e-mail correct tuner
chordsukulelecavacokeyboardtabbassdrumsharmonicaflute Guitar Pro
close

there isn't a video lesson for this song

chords

Be Mine

Key:  E More
Be Mine Key BB
Be Mine Key CC
Be Mine Key C#C#
Be Mine Key DD(one step down)
Be Mine Key D#D#(half step down)
Be Mine Key EE(original key)
Be Mine Key FF(half step up)
Be Mine Key F#F#(one step up)
Be Mine Key GG
Be Mine Key G#G#
Be Mine Key AA
Be Mine Key A#A#
	  		

Tuning: Standard 

Intro/Verse 

 G#m                 F#m                    G#m              F#m 
e|------------------------------------------------------------------------------| 
B|--4----------------2----------------------4----------------2------------------| 
G|--4-----4----4\2---2----2-----2---2---2---4----4----4\2----2------------------| 
D|--4h6---4h6--4\2---2h4--2h4---2---2---4---4h6--4h6--4\2----2h4---2----4-------| 
A|--------------------------------4----------------------------------4----------| 
E|------------------------------------------------------------------------------| 

  G#m                   F#m                      E 
e|------4------------------------------------------4----------------------------| 
B|-4----4---------------2--------------------------5------5---5-------5---5---5-| 
G|-4----4----4----4\2---2----2------2---2----------4------4---4-------4h6-4---4-| 
D|-4h6-------4h6--4\2---2h4--2h4----2h4-2h4------------4h6--6---6-4---------5---| 
A|------------------------------------------4-2---------------------------------| 
E|-----------------------------------------------0------------------0-----------| 

Chorus 
     A          E         A    E    A   E     F#m 
e|----------------------------------------------------------------------------| 
B|---5----------0---------5----0----5----0-----2------------------------------| 
G|---6----------1---------6----1----6----1-----2------------------------------| 
D|---7----------2---------7----2----7----2-----4------------------------------| 
A|---7----------2---------7----2----7----2-----4------------------------------| 
E|--------------0--------------0---------0------------------------------------| 

2nd Guitar during Chorus 
     A          E 
e|-2--5--9--11--12----------------------------------------| 
B|--------------------------------------------------------| 
G|-2--6--9--11--13----------------------------------------| 
D|--------------------------------------------------------| 
A|--------------------------------------------------------| 
E|--------------------------------------------------------| 

Bass Guitar Break  
e|---------------------------------------------------------------------------| 
B|---------------------------------------------------------------------------| 
G|---------------------------------------------------------------------------| 
D|-------6---7--7-8-9-----------------6-7--6-7-6-7-8-9-----------------------| 
A|------7---------------7------------7------------------7--------------------| 
E|--0--------------------0-----0---------------------------------------------| 

Back to Chorus 
then 
"So Be Mine.....So Be Mine....So Be Mine....." 
   E riff (repeat as needed) 
e|---------------------------------------------------------------------------| 
B|---0-----------------------------------------------------------------------| 
G|---1---2----2---2---2------------------------------------------------------| 
D|---2---2h4--2h4-2---2------------------------------------------------------| 
A|-------------------4-------------------------------------------------------| 
E|-0----------------------0--------------------------------------------------| 


************************************ 

| /   slide up 
| \   slide down 
| h   hammer-on 
| p   pull-off 
| ~   vibrato 
| +   harmonic 
| x   Mute note 
| b   Bend 
| pb  Pre-bend 
| br  Bend release 
| pbr Pre-bend release 
| brb Bend release bend 

************************************ 
		  

Full key step upFull key step up
Half key step upHalf key step up
Half key step downHalf key step down
Full key step downFull key step down
hide glossary

See also:

tabs Blind Blake - Diddie wa diddie tabs Robert Johnson - Come on in my kitchen tabs Mississipi John Hurt - Nobody cares for me tabs Cowboy Bebop - Rain tabs Muddy Waters - Same Thing tabs Tab Benoit - Shelter Me
e-chords

Other versions:

tabs Alabama Shakes - Be Mine
auto scroll beats size up size down change color hide chords drawings
tab show chords e-chords YouTube Clip e-chords hide all tabs e-chords go to top tab

share