Al Marconi

Romanza

Al Marconi

tabs

by  VSWORLD

save to print version add songbook text version e-mail correct tuner
chordsukulelecavacokeyboardtabbassdrumsharmonicaflute Guitar Pro
close

there isn't a video lesson for this song

chords

Romanza

	  		modified for steel string instead of classical (THEME 1) 

e|-2/7-----7-----7-----7-----5-----3-----3-----2----0------------| 
B|-----0-----0-----0-----0-----0-----0-----0-----0----0----------| 
G|-------0-----0-----0-----0-----0-----0-----0-----0----0--------| 
D|---------------------------------------------------------------| 
A|---------------------------------------------------------------| 
E|---0-----------------0-----------------0-----------------------| 

e|-0-----3-----7-----12~----12~----12~----12~--10-----8----------| 
B|---0-----0-----0------0------0------0-----------0-----0--------| 
G|-----0-----0-----0------0------0------0-----------0-----0------| 
D|---------------------------------------------------------------| 
A|---------------------------------------------------------------| 
E|-0-----------------0--------------------0----------------------| 

e|-8-----7-----5-----5-----7-----8-----7-----8-----11-----8------7-----| 
B|---5-----5-----5-----5-----5-----5-----7-----7------7-----7------7---| 
G|-----5-----5-----5-----5-----5-----5-----8-----8------8-----7------7-| 
D|---------------------------------------------------------------------| 
A|-0-----------------0-------------------------------------------------| 
E|-------------------------------------7-------------------------------| 
                                       ^ (use thumb) 

e|-7-----7-----7-----7-----5-----3-----3-----2----0------------| 
B|---0-----0-----0-----0-----0-----0-----0-----0----0----------| 
G|-----0-----0-----0-----0-----0-----0-----0-----0----0--------| 
D|-------------------------------------------------------------| 
A|-------------------------------------------------------------| 
E|-0-----------------0-----------------0-----------------------| 

                                                         (let ring) 
e|-2-----2-----2-----2-----3-----2-----0-----0-----0-----0-------| 
B|---0-----0-----0-----0-----0-----0-----0-----0-----0-----------| 
G|-----2-----2-----2-----2-----2-----2-----0-----0-----0---------| 
D|-------------------1-----------------2-------------------------| 
A|-2-----------------------------------------2-------------------| 
E|-------------------------------------------------3-----0-------| 



************************************ 

| /  Slide up 
| ~  Vibrato 

************************************ 
		  

See also:

tabs Deep Purple - Burn tabs Deep Purple - No No No tabs Deep Purple - Smoke on the water(ver. 2) tabs Deep Purple - Time To Kill tabs Deep Purple - Smoke on The Water (ver.3) tabs Deep Purple - Fireball
e-chords

Other versions:

tabs Andrea Bocelli - Romanza tabs Al Marconi - Romanza tabs Silvio Rodriguez - Romanza De La Luna
auto scroll beats size up size down change color hide chords drawings
tab show chords e-chords YouTube Clip e-chords hide all tabs e-chords go to top tab

share