Akwid

Como, Cuando Y Donde

Akwid

tabs Beginner beginner

by  ROBSMARTINS

save to print version add songbook text version e-mail correct tuner
chordsukulelecavacokeyboardtabbassdrumsharmonicaflute Guitar Pro
close

there isn't a video lesson for this song

chords

Como, Cuando Y Donde

	  		

intro
  
e|---------------------------------------------|   
B|-----5-7-8-8|10-11-8--8-13-10-13-10-10|11-8?-|   
G|--5|7----------------------------------------|   
D|---------------------------------------------|   
A|---------------------------------------------| 
E|---------------------------------------------|   

e|---------------------------|  
B|--8-10|13-10-13-10-10|11-8?|  
G|---------------------------|  
D|---------------------------|  
A|---------------------------|  
E|---------------------------|  

e|-----------------------------|  
B|?-8-10|13-10-13-10-13|15-11--|   
G|-----------------------------|  
D|-----------------------------| 
A|-----------------------------|  
E|-----------------------------|  

e|----------------|  
B|?8-11?8-10?7-8--|  
G|----------------|  
D|----------------|  
A|----------------|  
E|----------------|  
  

verso
  
e|---------------------------------------------|  
B|-----5-7-8-8|10-11-8--8-13-10-13-10-10|11-8?-|  
G|--5|7----------------------------------------|  
D|---------------------------------------------|  
A|---------------------------------------------|  
E|---------------------------------------------|  

e|---------------------------|   
B|--8-10|13-10-13-10-10|11-8?|   
G|---------------------------|  
D|---------------------------|  
A|---------------------------|  
E|---------------------------|  


e|-----------------------------------|  
B|?-8-10|13-10-13-10-13|15-15-13-11--|  
G|-----------------------------------|  
D|-----------------------------------|  
A|-----------------------------------|  
E|-----------------------------------|  

e|-----------------|  
B|?-8-11?8-10?7-8--|  
G|-----------------|  
D|-----------------|  
A|-----------------|  
E|-----------------|  

e|?10-13-12-10-----------|   
B|------------13-12-10---|   
G|--------------------12-|  
D|-----------------------|  
A|-----------------------|  
A|-----------------------|  

 

final  
  
e|--------------------| e|-----------------------------------|  
B|--13-16-15-13-11-8--| B|?-8-10|13-10-13-10-13|15-15-13-11--|  
G|--------------------| G|-----------------------------------|  
D|--------------------| D|-----------------------------------|  
A|--------------------| A|-----------------------------------|  
E|--------------------| E|-----------------------------------|  

e|-------------------------------------------------|  
B|?8-10-11-10-8-10?-7-8-7-10?-7-8------------------|  
G|-------------------------------7-8-7-6-7---------|  
D|----------------------------------------7-8-7----|  
A|---------------------------------------------10--|  
E|-------------------------------------------------|  




		  

See also:

tabs Pop Corn - Te quiero junto a mi tabs Liquits - Cuando Apagues La Luz tabs Division Minuscula - Las Luces De Esta Ciudad tabs Akwid - Como, Cuando Y Donde tabs Liquits - Chicharos Magicos tabs Division Minuscula - Sed
e-chords

Other versions:

tabs Akwid - Como, Cuando Y Donde
auto scroll beats size up size down change color hide chords drawings
tab show chords e-chords YouTube Clip e-chords hide all tabs e-chords go to top tab

share