Akercocke

My Apterous Angel

Akercocke

tabs

by  HUGO_RODRIGUES

save to print version add songbook text version e-mail correct tuner
chordsukulelecavacokeyboardtabbassdrumsharmonicaflute Guitar Pro
close

there isn't a video lesson for this song

chords

My Apterous Angel

	  		
Intro 

e|----------0------------0----------------------0------------0---------------| 
B|--------6------------6----------------------6------------6-----------------| 
G|------0------------0----------------------0------------0-------------------| 
D|----6------------6----------3-3---------6------------6------------3-3-3----| 
A|--8------------8------------6-6-------8------------8--------------6-6-6----| 
E|----------------------------0-0-----------------------------------0-0-0----| 
                            PM. .                                 PM. . . 
e|---------------------------------------------------------------------------------| 
B|---------------------------------------------------------------------------------| 
G|---------------------------------------------------------------------------------| 
D|-----6-5------6-5------6-5------6-5-------9----------9----------9----------9-----| 
A|---7--------7--------7--------7--------11---10----11---10----11---10----11---10--| 
E|-0--------0--------0--------0--------0----------0----------0----------0----------| 
PM .        .        .        .        .          .          .          .  
e|-------------------------------------------------------------| 
B|-------------------------------------------------------------| 
G|-------------------------------------------------------------| 
D|-----6-5------6-5------6-5------6-5--------------9-----------| 
A|---7--------7--------7--------7--------11--11----------10----| 
E|-0--------0--------0--------0----------0---------------------| 
  PM . . .  . . . .  . . . .  .  . . . 
e|----------0------------0----------------------0------------0---------------| 
B|--------6------------6----------------------6------------6-----------------| 
G|------0------------0----------------------0------------0-------------------| 
D|----6------------6----------3-3---------6------------6------------3-3-3----| 
A|--8------------8------------6-6-------8------------8--------------6-6-6----| 
E|----------------------------0-0-----------------------------------0-0-0----| 
        
                            PM. .                                 PM. . . 
Verse 

e|-------------------------------------------------------------------------------| 
B|-------------------------------------------------------------------------------| 
G|-------0--------0--------0--------0---------0---------0---------0---------0----| 
D|-----6--------6--------6--------6---------9---------9---------9---------9------| 
A|---7--------7--------7--------7--------11--------11--------11--------11--------| 
E|-0--------0--------0--------0--------0---------0---------0---------0-----------| 
                                                                                   X2 
e|-------------------------------------------------------------------------------| 
B|-------------------------------------------------------------------------------| 
G|-------0--------0--------0--------0---------12---------12---------12--------12-| 
D|-----6--------6--------6--------6---------9----------9----------9---------9----| 
A|---7--------7--------7--------7--------11---------11---------11--------11------| 
E|-0--------0--------0--------0--------0----------0----------0---------0---------| 


e|---------------------------------------------------------------------------------| 
B|---------------------------------------------------------------------------------| 
G|---------------------------------------------------------------------------------| 
D|-------------------------0-0-0-0-0-0-0-0-0-0-0-0-0-0-0-0-0-0-0-0-0-0-0-0-0-0-0-0-| 
A|-2-2-2-2-2-2-2-2-3-3-3-3-3-3-3-3-5-5-5-5-5-5-5-5-6-6-6-6-6-6-6-6-8-8-8-8-8-8-8-8-| 
E|-0-0-0-0-0-0-0-0-1-1-1-1-1-1-1-1-3-3-3-3-3-3-3-3-4-4-4-4-4-4-4-4-6-6-6-6-6-6-6-6-| 

e|-----------------------------------------------------------------| 
B|-----------------------------------------------------------------| 
G|-----------------------------------------------------------------| 
D|-0-0-0-0-0-0-0-0--0--0--0--0--0--0--0--0--0--0--0--0--0--0--0--0-| 
A|-9-9-9-9-9-9-9-9-10-10-10-10-10-10-10-10-13-13-13-13-13-13-13-13-| 
E|-7-7-7-7-7-7-7-7--8--8--8--8--8--8--8--8-11-11-11-11-11-11-11-11-| 

e|------------------------------------------------------------| 
B|------------------------------------------------------------| 
G|------------------------------------------------------4*----| 
D|---------6p3----------6p3\2h3---------9p6---------3-6-------| 
A|------------------------------------------------------------| 
E|-0-0-0-0-----0-0-0-0----------0-0-0-0-----0-0-0-0-----------| 
PM . . . .     . . . .          . . . .     . . . .     
e|------------------------------------------------------------| 
B|------------------------------------------------------------| 
G|-----------------------------------------------------12\----| 
D|---------6p3---------6p3\2h3---------9p6---------9p6--------| 
A|------------------------------------------------------------| 
E|-0-0-0-0-----0-0-0-0---------0-0-0-0-----0-0-0-0------------| 
PM . . . .     . . . .         . . . .     . . . . 
e|------------------------------------------------------------| 
B|------------------------------------------------------------| 
G|------------------------------------------------------4*----| 
D|---------6p3----------6p3\2h3---------9p6---------3-6-------| 
A|------------------------------------------------------------| 
E|-0-0-0-0-----0-0-0-0----------0-0-0-0-----0-0-0-0-----------| 
PM . . . .     . . . .          . . . .     . . . . 
e|----------------------------------------------------------------| 
B|----------------------------------------------------------------| 
G|----------------------------------------------------------------| 
D|----------------------------------------------------------------| 
A|-------------------------1---------------------------4----------| 
E|-1-4-3-4-1-4-3-4-1-4-3-4---4-3-4-4-7-6-4-7-6-4-7-6-7---7-6-7----| 

e|-------------------------------------------------------------------------------| 
B|-------------------------------------------------------------------------------| 
G|-------------------------------------------------------------------------------| 
D|-------------------------------------------------------------------------12----| 
A|-------------------------1------------------------------------------------X----| 
E|-1-4-3-4-1-4-3-4-1-4-3-4---4-3-4-4-7-6-7-4-7-6-7-4-4-4-6-6-6-7-7-7-9-9-9-10----| 
                                                   PM. . . . . . . . . . . 
e|--------------------------------------------------------------------| 
B|--------------------------------------------------------------------| 
G|-------------------------3-------------------------------6----------| 
D|-3-6-5-6-3-6-5-6-3-6-5-6---6-5-6-6-9-8-9-6-9-8-9-6-9-8-9---9-8-9----| 
A|--------------------------------------------------------------------| 
E|--------------------------------------------------------------------| 

e|----------------------------------------------------------------------------------------------------| 
B|-------------------------------------10-------------------------------------------------------------| 
G|-10-13-12-13-10-13-12-13-10-13-12-13----13-12-13-13-16-15-13-16-15-16-------------------------------| 
D|----------------------------------------------------------------------12-12-12-11-11-11-10-\--------| 
A|----------------------------------------------------------------------------------------------------| 
E|----------------------------------------------------------------------------------------------------| 

e|----------------------------------------------------------------------------------| 
B|----------------------------------------------------------------------------------| 
G|----------------------------------------------------------------------------------| 
D|---------------------------------0------------------------------------------------| X2 
A|-11-8-11-10-11-11-11---8-7-7---8---7--11-8-11-10-11-11-11---8-7-7---8-10-11-10----| 
E|-0----------0--------0-------0--------0----------0--------0-------0---------------| 

e|-------------------------------------| 
B|-------------------------------------| 
G|-------------------------------------| 
D|---------------------3-3-3--3-3-3----| X2 
A|-11-8-11-10-11-11-11-4-4-4--4-4-4----| 
E|-0----------0--------3-3-3--6-6-6----| 

e|-------------------------------------------------------| 
B|-------------------------------------------------------| 
G|-------------------------------------------------------| 
D|------------------------3-3-3-3-3-3--3-3-3--3-3-3-3----| 
A|-11-8-11-10-11-11-11----4-4-4-4-4-4--4-4-4--4-4-4-4----| 
E|-0----------0-----------3-3-3-6-6-6--6-6-6--6-6-6-6----| 

e|----------------------------------------------0--------| 
B|--------0----8---------8-----------0--------3---3------| 
G|-----0----0----7---------0------0----0----6-------6----| X4 
D|---6---6'----------5-6--------6---6-----4--------------| 
A|-5--------------------------5--------------------------| 
E|-----------------0-------------------------------------| 
  '= Don't play first time 
e|--------------------------------------------------------------------| 
B|---------------------------------------------------------------0----| 
G|---0---------0-----0---------0-----0---------0-------0-------0------| 
D|-----0-----0---0-----0-----0---0-----0-----0---0-----------0--------| X6 
A|---------0---------------0---------------0---------------0----------| 
E|-3-----5---------6-----8---------3-----5---------0-6---2------------| 

e|------------------------------------------------------------------| 
B|---------------------------------------------0--------------------| 
G|-----0-------0---------0-----0-------3-----3---3------------------| 
D|---0-------0---0-----0-----4---4---4-----4-------4-----2----------| 
A|---------0-------0-------6-------5-----4-----------1-4------------| 
E|-3-----1-----------0-------------------------------------3b4-0----| 

e|---------------0----| 
B|---------------0----| 
G|---------------3----| 
D|---------------3----| 
A|-4-4-4-4-------2----| 
E|-2-2-2-2-0-----0----| 

e|-----------------0----| 
B|-----------------0----| 
G|-----------------3----| 
D|-----------------3----| X5 
A|-4-4-4-4-2-2-----2----| 
E|-2-2-2-2-0-0-----0----| 

e|--------------| 
B|--------------| 
G|--------------| 
D|--------------| 
A|-4-4-4-4-2----| 
E|-2-2-2-2-0----| 

e|-----------------------------------------------------------------------------------------| 
B|-----------0-----------0-----------0-----------0---------0---------0---------0---------0-| 
G|------9-----------9-----------9-----------9----------8---------8---------8---------8-----| 
D|---10---10-----10---10-----10---10-----10---10-----9---9-----9---9-----9---9-----9---9---| 
A|-8-----------8-----------8-----------8-----------7---------7---------7---------7---------| 
E|-----------------------------------------------------------------------------------------| 

e|---------------------------------------------------------------------0------------------| 
B|-----------0-----------0-----------0-----------0---------0---------0---0---0---0--------| 
G|------9-----------9-----------9-----------9----------8---------8---------8---8---8------| 
D|---10---10-----10---10-----10---10-----10---10-----9---9-----9---9-----------------9----| 
A|-8-----------8-----------8-----------8-----------7---------7----------------------------| 
E|----------------------------------------------------------------------------------------| 

e|---------------------------------------------------------------------------------------------| 
B|---------------------------------------------------------------------------------------------| 
G|---------------------------------------------------------------------------------------------| 
D|---------------------------------------------------------------------------------------------| 
A|-11-11-11-11-11-13-11-10-11-11-10-10-8-8-7-7-11-11-11-11-11-13-11-10-11-11-13-13-14-14-13-13-| 
E|-0--0--0--0---0--0--0--0--0--0--0--0-0-0-0-0-0--0--0--0--0---0--0--0--0--0--0--0--0--0--0--0-| 

e|-------------------------------------------------------------------------------------------------| 
B|-------------------------------------------------------------------------------------------------| 
G|-------------------------------------------------------------------------------------------------| 
D|-------------------------------------------------------------------------------------------------| 
A|-14-14-14-14-14-16-14-13-14-14-16-16-17-17-16-16-19-19-19-19-19-20-19-17-19-19-20-20-22-22-20-20-| 
E|--0--0--0--0--0--0--0--0--0--0--0--0--0--0--0--0--0--0--0--0--0--0--0--0--0--0--0--0--0--0--0--0-| 

e|---------------------------------------------------------------------------------| 
B|---------------------------------------------------------------------------------| 
G|---------------------------------------------------------------------------------| 
D|---------------------------------------------------------------------------------| 
A|-5--5-----------------------------------5--5-------------------------------------| 
E|-3--3--1-1-1-1-0-0-0-0-1-1-1-1-0-0-0-0--3--3--1-1-1-1-0-0-0-0-1-1-1-1-3-3-4-4----| 

e|-----------------------------------------------------------------| 
B|-----------------------------------------------------------------| 
G|-----------------------------------------------------------------| 
D|-3-3-3-3-------3-3-3-3-------------------------------------------| 
A|-----------------------------------------------------------------| 
E|--------3-3-3-3-------3-3-3-3-1-1-1-1-0-0-0-0-1-1-1-1-0-0-0-0----|  
                                                                      X2 
e|-----------------------------------------------------------------| 
B|-----------------------------------------------------------------| 
G|-----------------------------------------------------------------| 
D|-3-3-3-3-------3-3-3-3-------------------------------------------| 
A|-----------------------------------------------------------------| 
E|--------3-3-3-3-------3-3-3-3-1-1-1-1-0-0-0-0-1-1-1-1-3-3-4-4----| 


e|--------------------------------------------------------------------| 
B|--------------------------------------------------------------------| 
G|--------------------------------------------------------------------| 
D|--------------------------------------------------------------------| 
A|--------------------------------------------------------------------| 
E|-4-4-4-4-3-3-3-3-4-4-4-4-3-3-3-3-1-1-1-1-0-0-0-0-1-1-1-1-0-0-0-0----| 

e|---------------------------------------------------------------------------| 
B|-0-0-0-0--0-0-0-0--0-0-0-0--0-0-0-0--0-0-0-0--0-0-0-0--0-0-0-0--0-0-0-0----| 
G|-x-x-x-x--x-x-x-x--x-x-x-x--x-x-x-x--x-x-x-x--x-x-x-x--x-x-x-x--x-x-x-x----| 
D|-6-6-6-6--5-5-5-5--6-6-6-6--5-5-5-5--3-3-3-3--2-2-2-2--3-3-3-3--2-2-2-2----|X4 
A|-x-x-x-x--x-x-x-x--x-x-x-x--x-x-x-x--x-x-x-x--x-x-x-x--x-x-x-x--x-x-x-x----| 
E|-4-4-4-4--3-3-3-3--4-4-4-4--3-3-3-3--1-1-1-1--0-0-0-0--1-1-1-1--0-0-0-0----| 

e|-------------------------------------------------------------------------------------| 
B|-------------------------------------------------------------------------------------| 
G|-------------------------------------------------------------------------------------| 
D|-----------------2h5-----------------2h5-----------------2h5-------------------------|X3 
A|-------------1h4-----------------1h4-----------------1h4---------5-----6-----3-----4-| 
E|-0-0-0-0-0-0---------0-0-0-0-0-0---------0-0-0-0-0-0---------0-0-3-0-0-4-0-0-1-0-0-6-| 
                                                                
e|------------------------------------------------------------------------| 
B|------------------------------------------------------------------------| 
G|------------------------------------------------------------------------| 
D|------------------------------------------------------------------------| 
A|-----------------------------------------------------------------4h7----| 
E|-0-0-0-0-0-0-0-0-0-0-0-0-0-0-0-0-0-0-0-0-0-0-0-0-0-0-0-0-0-0-3h6--------| 

e|-------------------------------------------------------------------------------| 
B|-------------------------------------------------------------------------------| 
G|-------------------------------------------------------------------------------| 
D|-------------------------------------------------------------------------------| 
A|---------------------------------------------------------------4h7-----7h10----| 
E|-0-0-0-0-0-0-0-0-0-0-0-0-0-0-0-0-0-0-0-0-0-0-0-0-0-0-0-0-0-3h6-----6h9---------| 

e|------------------------------------------------------------------------| 
B|------------------------------------------------------------------------| 
G|------------------------------------------------------------------------| 
D|------------------------------------------------------------------------| 
A|-----------------------------------------------------------------4h7----| 
E|-0-0-0-0-0-0-0-0-0-0-0-0-0-0-0-0-0-0-0-0-0-0-0-0-0-0-0-0-0-0-3h6--------| 

e|---------------------------------------------------------------------------------------------------| 
B|---------------------------------------------------------------------------------------------------| 
G|---------------------------------------------------------------------------------------------------| 
D|----------------------------------------------------------------------------------5h8------8h11----| 
A|-----------------------------------------------------------------4h7-----7h10-4h7-----7h10---------| 
E|-0-0-0-0-0-0-0-0-0-0-0-0-0-0-0-0-0-0-0-0-0-0-0-0-0-0-0-0-0-0-3h6-----6h9---------------------------| 

e|--------| 
B|--------| 
G|--------| 
D|--------| 
A|-12\----| 
E|-10\----| 


Outro 

e|----------------------------------| 
B|----------------------------------| 
G|----------------------------------| 
D|----------------------------------|  
A|--------------------------------3-| 
E|0-0-0-0-0-0-0-0-0-0-0-0-0-0-0-0-1-| 
                                       
e|-------------------------------------------------------------------------------------------| 
B|-------------------------------------------------------------------------------------------| 
G|-------------------------------------------------------------------------------------------| 
D|-------------------------------------------------------------------------------------------| 
A|----------------------------------4h7----------------------------6-----5-----3-----5-----3-| 
E|-0-0-0-0-0-0-0-0-0-0-0-0-0-0-0-3h6----0-0-0-0-0-0-0-0-0-0-0--0-0-4-0-0-3-0-0-1-0-0-3-0-0-1-| 

e|----------------------------------| 
B|----------------------------------| 
G|----------------------------------| 
D|----------------------------------|  
A|--------------------------------3-| 
E|0-0-0-0-0-0-0-0-0-0-0-0-0-0-0-0-1-| 

e|-------------------------------------------------------------------------------------------| 
B|-------------------------------------------------------------------------------------------| 
G|-------------------------------------------------------------------------------------------| 
D|-------------------------------------------------------------------------------------------| 
A|----------------------------------4h7----------------------------6-----5-----3-----5-----3-| 
E|-0-0-0-0-0-0-0-0-0-0-0-0-0-0-0-3h6----0-0-0-0-0-0-0-0-0-0-0--0-0-4-0-0-3-0-0-1-0-0-3-0-0-1-| 

e|----------------------------| 
B|----------------------------| 
G|----------------------------| 
D|----------------------------| 
A|-2-------------6-5-3-5-3----| 
E|-0-------------4-3-1-3-1----| 
               PM. . . . . 
		  

See also:

tabs Ira! - Vitrine Viva tabs Deep Purple - Black Knight tabs Deep Purple - Demonds Eye tabs Deep Purple - Smoke on the Water (ver. 2) tabs Deep Purple - Clearly Quite Absurd tabs Ira! - Envelheço na Cidade (intro)
e-chords

Other versions:

tabs Akercocke - My Apterous Angel
auto scroll beats size up size down change color hide chords drawings
tab show chords e-chords YouTube Clip e-chords hide all tabs e-chords go to top tab

share