Akeboshi

Wind Tab

Akeboshi

Difficulty: nolevelnolevel

by educastilho

tuner correct add songbook print version text version save to e-mail
chordsukulelecavacokeyboardtabbassdrumsharmonicsflute Guitar Pro
close

there isn't a video lesson for this song

request
chords

Wind

Year: 2005 - Album: Akeboshi

Key:  Db More
Wind Key G#G#
Wind Key AA
Wind Key A#A#
Wind Key BB(one step down)
Wind Key CC(half step down)
Wind Key DbDb(original key)
Wind Key DD(half step up)
Wind Key D#D#(one step up)
Wind Key EE
Wind Key FF
Wind Key F#F#
Wind Key GG
  		E|------------------------------------| 
B|------5------4----------------------| 
G|------6------4------------6------4--| 4x 
D|--------------------------7------2--| 
A|-4----------------------------------| 
E|-----------4---------5---------0----| 

E|-4-------4----7----------------------| 
B|-----7-------------4---------4----7--| 
G|------------------------6------------| 
D|-------------------------------------| 
A|-4-----------------------------------| 
E|--------------4----5--------------0--| 
                                          2x 
                                        
E|-4-------4----7----------------------| 
B|-----7-------------4--------------4--| 
G|------------------------6----4-------| 
D|-------------------------------------| 
A|-4-----------------------------------| 
E|--------------4----5--------------0--| 

E|-4--------------------------4------4-7-7--7-7------------4------| 
B|----7--5-----5-5-----5-5-5----7-5---------------5--5-5-7---7-5--| 
G|----------6-------6---------------------------------------------| 
D|----------------------------------------------------------------| 
A|-4---------------------------------4----------------------------| 
E|-------------4----5---------0-----------------4----5-----0------| 

E|---------------------------------------------------------| 
B|-5-5--7--4---------------------5-4-5-4-5--7--------------| 
G|-------------6--4---6-4-4-4-4-----------------6-4-4-4-4--| 
D|---------------------------------------------------------| 
A|-4-----------------------------4-------------------------| 
E|-----------4------5---------0----------4-----5--------0--| 

E|-4-------4----7----------------------| 
B|-----7-------------4---------4----7--| 
G|------------------------6------------| 
D|-------------------------------------| 
A|-4-----------------------------------| 
E|--------------4----5--------------0--| 

E|-4-------4----7----------------------| 
B|-----7-------------4--------------4--| 
G|------------------------6----4-------| 
D|-------------------------------------| 
A|-4-----------------------------------| 
E|--------------4----5--------------0--| 

E|---4----------------------4--4---4---4---------------4---| 
B|------7--5--5-----5-5--7-------7---7----7----5---5-------| 
G|-6------------6--------------------------------6---6-----| 
D|---------------------------------------------------------| 
A|---4-------------------------4---------------------------| 
E|------------4---5---------0----------4----5----------0---| 

E|--4-7-7--7-7--------------4----4---4---4-----------------| 
B|--------------5---5---5----------7---7---7--5-5-5-5-5-5--| 
G|-6------------------6---6--------------------------------| 
D|---------------------------------------------------------| 
A|--4----------------------------4-------------------------| 
E|-----------4----5---------0------------4---5----------0--| 

E|---4-------------------4----4--5--5--4-------4----------------| 
B|--------------------------------------------------------------| 
G|-6-------6-6--6-4----6--------------------6-------6-6--6--4---| 
D|--------------------------------------------------------------| 
A|-4-------------------4--------------------4-------------------| 
E|------4----5-----0-------4----5-------0-------4-----5------0--| 
                                                                   
2x 
                                                                 
E|----------------------------| 
B|----------------------------| 
G|-4-----4--6--4--------------| 
D|----6-----------------------| 
A|----4-----------7-7--6-7----| 
E|----------4-----5--------0--| 

E|----------------------------| 
B|---------------5----7--4----| 
G|-6----4------4--------------| 2x 
D|----------------------------| 
A|-4--------------------------| 
E|---------4-----5---------0--| 

E|----------------------------| 
B|----4-----------------------| 
G|-6-----4--------------------| 
D|----------------------------| 
A|-4--------------------------| 
E|---------4-----5------0-----| 

E|-----------------------| 
B|-------------4-4-5--7--| 
G|-6--4-----4------------| 
D|-----------------------| 
A|-4---------------------| 
E|-------4-----5------7--| 

E|----------------------------| 
B|-5-4-5-4-5--7--------| —------| 
G|-----------------6-4-4-4-4--| 2x 
D|----------------------------| 
A|-4--------------------------| 
E|---------4-----5---------0--| 

E|-----------------------------------------------| 
B|-5-5-7-4---------------------------------------| 
G|---------4-6-4--4--4--------------6-4--4--4----| 
D|---------------------6----------------------6--| 
A|-4--------------------------4------------------| 
E|-------4---5-------0-----------4--5-------0----| 

E|---------------------------------------------------------| 
B|----5-4-----5--------------------5-4-----5---------------| 
G|--------------6--6-4-----------------------6--6-4--------| 
D|---------------------6p4-6------------------------6-4----| 
A|-4----------------------------4-----------------------6--| 
E|---------4----5----------0------------4----5----------0--| 

E|----------------------------------------------------------| 
B|-5--4-4------------------------5---5--5--5--5-5--5-5-5-5--| 
G|------------6--6--6-4--4----4-----------------------------| 
D|---------6------------------------------------------------| 
A|-4-----------------------------4--------------------------| 
E|-------4----5----------0-----------------4-------5-----0--| 

E|---4-------------------4----4--5--5--4------4-----------------| 
B|--------------------------------------------------------------| 
G|-6-------6-6--6-4----6--------------------6-------6-6--6--4---| 
D|--------------------------------------------------------------| 
A|-4-------------------4--------------------4-------------------| 
E|------4----5-----0-------4-----5-------0-------4-----5------0-| 

E|----------------------------| 
B|----------------------------| 
G|-4-----4--6--4--------------| 
D|----6-----------------------| 
A|----4-----------7-7--6-7----| 
E|----------4-----5--------0--| 

E|----------------------------------------------------------| 
B|----------------------------------------------------------| 
G|-----------------------------------------6-------6--------| 
D|---------------------------------------6---6-9p6---6-9p6--| 
A|-4--6-7-----------7p6-------4--6-7------------------------| 
E|--------7-------7--------7---------7----------------------| 

E|------------------------------------------| 
B|------------------------------------------| 
G|------------------------------------------| 
D|------------------------------------------| 
A|-4-6-7-----------7p6-------4--6-7---------| 
E|-------7-------7--------7---------7-4--5--| 

E|---4-------------------4----4--5--5--4-------4----------------| 
B|--------------------------------------------------------------| 
G|-6-------6-6--6-4----6--------------------6-------6-6--6--4---| 
D|--------------------------------------------------------------| 
A|-4-------------------4--------------------4-------------------| 
E|------4----5-----0-------4----5-------0-------4-----5------0--| 
                                                                 2x 
                                                                 
E|----------------------------| 
B|----------------------------| 
G|-4-----4--6--4--------------| 
D|----6-----------------------| 
A|----4-----------7-7--6-7----| 
E|----------4-----5--------0--| 

E|----------------------------| 
B|----------------------------| 
G|-4-----4--6--4--------------| 4x 
D|----6-----------------------| 
A|----4-----------7-7--6-7----| 
E|----------4-----5--------0--| 
	  

Search Paypal
auto scroll beats size up size down change color hide chords drawings
tab show chords e-chords YouTube Clip e-chords hide all tabs e-chords go to top tab

share with facebook