Airbourne

Diamond In The Rough

Airbourne

tabs

by  MATHEUSCARDOZO

save to print version add songbook text version e-mail correct tuner
chordsukulelecavacokeyboardtabbassdrumsharmonicaflute Guitar Pro
close

there isn't a video lesson for this song

chords

Diamond In The Rough

	  		Introdução 

D|---------------------------------|x2 
A|--------3--3-3-3-----------------| 
F|--------2--2-2-2-----------------| 
C|--------0--0-0-0-----------------| 
G|-2--5-7-0--0-0-0--5-7-2--2--2-2--| 
D|-0--3-5-----------3-5-0--0--0-0--| 

Verso 

D|-----------------------------------------------------| 
A|-----------------------------------------------------| 
F|-----------------------------------------------------| 
C|-----------------------------------------------------| 
G|-2--5-7-5-7-7-2--5-7-5-7-7-2--5-7-5-7-7-2--5-7-5-7-7-| 
D|-0--3-5-3-5-5-0--3-5-3-5-5-0--3-5-3-5-5-0--3-5-3-5-5-| 

D|-----------------------------------------------------| 
A|-----------------------------------------------------| 
F|-----------------------------------------------------| 
C|-2--5-7-5-7-7-2--5-7-5-7-7---------------------------| 
G|-0--3-5-3-5-5-0--3-5-3-5-5-2--5-7-5-7-7-2--5-7-5-7-7-| 
D|---------------------------0--3-5-3-5-5-0--3-5-3-5-5-| 

Pré-Refrão 

D|----------------------------------| 
A|----------------------------------| 
F|----------------------------------| 
C|-4--4-4-4--4-4-4-4-2--2-2-2-------| 
G|-2--2-2-2--2-2-2-2-0--0-0-0-------| 
D|----------------------------3--3--| 


Refrão 

D|---------------------------------|x2 
A|--------3--3-3-3-----------------| 
F|--------2--2-2-2-----------------| 
C|--------0--0-0-0-----------------| 
G|-2--5-7-0--0-0-0--5-7-2--2--2-2--| 
D|-0--3-5-----------3-5-0--0--0-0--| 

Verso 

D|-----------------------------------------------------| 
A|-----------------------------------------------------| 
F|-----------------------------------------------------| 
C|-----------------------------------------------------| 
G|-2--5-7-5-7-7-2--5-7-5-7-7-2--5-7-5-7-7-2--5-7-5-7-7-| 
D|-0--3-5-3-5-5-0--3-5-3-5-5-0--3-5-3-5-5-0--3-5-3-5-5-| 

D|-----------------------------------------------------| 
A|-----------------------------------------------------| 
F|-----------------------------------------------------| 
C|-2--5-7-5-7-7-2--5-7-5-7-7---------------------------| 
G|-0--3-5-3-5-5-0--3-5-3-5-5-2--5-7-5-7-7-2--5-7-5-7-7-| 
D|---------------------------0--3-5-3-5-5-0--3-5-3-5-5-| 

Pré-Refrão 

D|----------------------------------| 
A|----------------------------------| 
F|----------------------------------| 
C|-4--4-4-4--4-4-4-4-2--2-2-2-------| 
G|-2--2-2-2--2-2-2-2-0--0-0-0-------| 
D|----------------------------3--3--| 

Refrão 

D|---------------------------------|x2 
A|--------3--3-3-3-----------------| 
F|--------2--2-2-2-----------------| 
C|--------0--0-0-0-----------------| 
G|-2--5-7-0--0-0-0--5-7-2--2--2-2--| 
D|-0--3-5-----------3-5-0--0--0-0--| 


Solo 

1:52 

D|----------------------| 
A|----------------------| 
F|-9b----9-11-9-9-10-9-8| 
C|----------------------| 
G|----------------------| 
D|----------------------| 

1:55 

D|----------------------| 
A|----------------------| 
F|-9-9-9--9-11-9-10-9-8-| 
C|----------------------| 
G|----------------------| 
D|----------------------| 

1:58 

D|-------9-9-9----------------| 
A|------------9-11-9-9-10-9-8-| 
F|-(x/)-----------------------| 
C|----------------------------| 
G|----------------------------| 
D|----------------------------| 

2:02 

D|-99-9-9-9-------------| 
A|----------9-11-9-10-8-| 
F|----------------------| 
C|----------------------| 
G|----------------------| 
D|----------------------| 

2:06 

D|----------12-12-| 
A|-12-13-12-------| 
F|----------------| 
C|----------------| 
G|----------------| 
D|----------------| 

2:07 

D|--------12-10h12p11-| 
A|-9-10-9-------------| 
F|--------------------| 
C|--------------------| 
G|--------------------| 
D|--------------------| 

2:09 

D|-7-9-8-10-11-7-9-8-10-11-7-9-8-10-11-7-9-8-10-11-12b--| 
A|------------------------------------------------------| 
F|------------------------------------------------------| 
C|------------------------------------------------------| 
G|------------------------------------------------------| 
D|------------------------------------------------------| 

Refrão 

D|---------------------------------|4x 
A|--------3--3-3-3-----------------| 
F|--------2--2-2-2-----------------| 
C|--------0--0-0-0-----------------| 
G|-2--5-7-0--0-0-0--5-7-2--2--2-2--| 
D|-0--3-5-----------3-5-0--0--0-0--| 
		  

See also:

tabs Creed - One Last Breath (ver. 2) tabs John Mayer - Neon tabs The Offspring - Come Out and Play tabs The Doors - Riders On The Storm tabs Guns N' Roses - Knockin' On Heaven's Door tabs Jack Johnson - Breakdown
e-chords

Other versions:

tabs Airbourne - Diamond In The Rough
auto scroll beats size up size down change color hide chords drawings
tab show chords e-chords YouTube Clip e-chords hide all tabs e-chords go to top tab

share