Air Supply

home > Air Supply

Only OneForever Tab

Air Supply

Difficulty: IntermediateIntermediate

by supply

tuner correct add songbook print version text version save to e-mail
chordsukulelecavacokeyboardtabbassdrumsharmonicsflute Guitar Pro
chords

Only OneForever

  		  tom: Am7 
 
 
 
  Only One Forever 
   Intro: esta introduçao é a mesma tocada nos versos 
 
         e|---------------------------------------0------------------0--------- 
         B|-------1-0------3-0---0---------0-----0---0------0------0--0---- 
         G|------0--------0-----0---0-----0--0-----0-------5--5------5-----  ========= ESTE É OS VERSOS 
         D|----2--------0-----------------------------------0------------------ 
         A|--0--------2-----------------4--------------------------------------                                
         E|--------------------------------------------------------------------- 
            
             VERSOS:     There has to be a place for you and me 
                                   Where we can sleep and waters still run deep 
           
           
         e|------------0--------0---------0--------0------ 
         B|---------0--------0---------0--------0--------- 
         G|-------0--------0---------0--------0-----------  =======   (3x) este toke é a ponte 
         D|------------------------------------------------- 
         A|----7--------6---------5--------4-------------- 
         E|------------------------------------------------- 
           
                               PONTE:  And you're the one that sails into me 
                                               And you're the one whose lips are silent 
                                                You're the one that always said 
          
           e|---------0-------0-------3-2-0--------            |---------0-------0-----------3---------- 
           B|-------0-------0-------0--------0------           |-------0-------0--------0-----0---0----- 
           G|-----0-------0-------0------------0----  2x       |-----0-------0--------0---0-----0-------       Refrão           
           D|-----------0-------2-------------------           |-----------0---------------------------- 
           A|--3------------------------------------           |---3------------------------------------ 
           E|----------------------------------------          |-------------------3--------------------              
 
 
                              Refrão: There's only one forever 
                                                 It brought us both together, 
                                                There's only one forever 
 
         SOLO:  
 
       e|----------3/5--3----3/5-------5----------------7---------------3-2-0--------- 
       B|--------1--------0---3/5---------5---------0------0---0------0--------0------ 
       G|------0-----------------------5-----5-----0---0------0------0-------------0-- 
       D|----------------------------0------------------------------2----------------- 
       A|---0------------------------------------------------------------------------- 
       E|-----------------------------------------7----------------------------------- 
 
                    VERSOS:  You said to me, just give me honesty 
                                      And in return, I'll build your santuary 
                        
          
                     PONTE: Long ago, that path was chosen 
                                    How could we not fall in love 
                                    Remember when we always said 
             
                    Refrão:There's only one forever 
                                     It brought us both together 
                                     There's only one forever 
 
SOLO: 
       e|----------3/5--3----3/5-------5----------------7------------- 
       B|--------1--------0---3/5---------5---------0------0---0------ 
       G|------0-----------------------5-----5-----0---0------0--------- 
       D|----------------------------0------------------------------------ 
       A|---0------------------------------------------------------------- 
       E|-----------------------------------------7----------------------- 
 
 
               PONTE:  You're the one that sails into me 
                               You're the one whose lips are silent 
                               You're the one that always said 
             
              Refrão:There's only one forever 
                               There's only one forever 
                               It brought us both together 
                               There's only one forever 
 
=========================================================================== 
   CONTRIBUIÇÃO:josiel da silva e a galera de MAMORÉ 
 

	  

Full key step upFull key step up
Half key step upHalf key step up
Half key step downHalf key step down
Full key step downFull key step down
Search Paypal
auto scroll beats size up size down change color hide chords drawings
tab show chords e-chords YouTube Clip e-chords hide all tabs e-chords go to top tab