Afi

Just Like Heaven

Afi

tabs

by  GUSTSILVA

save to print version add songbook text version e-mail correct tuner
chordsukulelecavacokeyboardtabbassdrumsharmonicaflute Guitar Pro
close

there isn't a video lesson for this song

chords

Just Like Heaven

	  		
INTRO 
e|------------------------------------------------------- 
b|------------------------------------------------------- 
G|------------------------------------------------------- 
D|------------------------------------4-4-4-4-4-4-4------ 
A|--4-4-4-4-4-2-2-2-2-2-2-2-5-5-5-5-5-------------------- 
E|------------------------------------------------------- 

e|------------------------------------------------------------5------------ 
b|-----2----------------------------------2---------------------7---------- 
G|------------1----------------------------------1------------------------- 
D|-----------------0----------------------------------0-------------------- 
A|--0------------2---/5-5-5-5-5-5-5-5--0------------2---/5-5------5-5-5-5-- 
E|---------0---------------------------------0-0--------------------------- 

e|--0--0--0--0--0--0-0-0-0-0-0-0-0----------------------- 
b|-14-14-14-12-12-10-9-9-9-7-7-5-5-3-3-2^3^2-0-0--------- 
G|-----------------------------------------------2-2-2-2- 
D|------------------------------------------------------- 
A|------------------------------------------------------- 
E|------------------------------------------------------- 

e|--0--0--0--0--0--0-0-0-0-0-0-0-0----------------------- 
b|-14-14-14-12-12-10-9-9-9-7-7-5-5-3-3-2^3^2-0-0--------- 
G|-----------------------------------------------2-2-2-2- 
D|------------------------------------------------------- 
A|------------------------------------------------------- 
E|------------------------------------------------------- 

e|------------------------------------------------------------------ 
b|-2-2-3-3-5/7-7-9-9-10-10-X-12-12-12-14-14-15-15-17-17-17-15-15-15- 
G|------------------------------------------------------------------ 
D|------------------------------------------------------------------ 
A|------------------------------------------------------------------ 
E|------------------------------------------------------------------ 

e|--0--0--0--0--0--0-0-0-0-0-0-0-0----------------------- 
b|-14-14-14-12-12-10-9-9-9-7-7-5-5-3-3-2^3^2-0-0--------- 
G|-----------------------------------------------2-2-2-2- 
D|------------------------------------------------------- 
A|------------------------------------------------------- 
E|------------------------------------------------------- 

VERSE 
e|------0------------------------------0--- 
b|--------2-------0---------3-------------- 
G|----------------1-----------4------------ 
D|------------------2------------0-0------- 
A|--0--------------------2----------------- 
E|-----------0-0--------------------------- 

e|------0---------------------------------- 
b|--------2-------0---------3----------7--- 
G|----------------------------4------------ 
D|--------------------------------0-0------ 
A|--0--------------------2----------------- 
E|-----------0-0--------------------------- 

e|------0---------2-------2------------------------------------------------------ 
b|----2---------------------3-----5---------0^2-------------3-------5---5-------- 
G|----2-----------------------------7-----2----------1---------4------7---7------ 
D|----------2-2-------4---------0---------------------------------0-------------- 
A|--0-----------------------------------0----------------2----------------------- 
E|-----------------------------------------------0-0----------------------------- 

e|--0--0--0--0--0--0-0-0-0-0-0-0-0----------------------- 
b|-14-14-14-12-12-10-9-9-9-7-7-5-5-3-3-2^3^2-0-0--------- 
G|-----------------------------------------------2-2-2-2- 
D|------------------------------------------------------- 
A|------------------------------------------------------- 
E|------------------------------------------------------- 

e|--0--0--0--0--0--0-0-0-0-0-0-0-0----------------------- 
b|-14-14-14-12-12-10-9-9-9-7-7-5-5-3-3-2^3^2-0-0--------- 
G|-----------------------------------------------2-2-2-2- 
D|------------------------------------------------------- 
A|------------------------------------------------------- 
E|------------------------------------------------------- 

e|------------------------------------------------------------------ 
b|-2-2-3-3-5/7-7-9-9-10-10-X-12-12-12-14-14-15-15-17-17-17-15-15-15- 
G|------------------------------------------------------------------ 
D|------------------------------------------------------------------ 
A|------------------------------------------------------------------ 
E|------------------------------------------------------------------ 

e|--0--0--0--0--0--0-0-0-0-0-0-0-0----------------------- 
b|-14-14-14-12-12-10-9-9-9-7-7-5-5-3-3-2^3^2-0-0--------- 
G|-----------------------------------------------2-2-2-2- 
D|------------------------------------------------------- 
A|------------------------------------------------------- 
E|------------------------------------------------------- 

VERSE 
e|----0-------------------------------0---------------------------0----------- 
b|------2--------------3----------------2--------0-----3------------3--------- 
G|------------1----------4----7----------------1---------4-------------------- 
D|--------------2-----------0---0-----------------------------0--------------- 
A|-0---------------2---------------0----------------2------------------------- 
E|---------0--------------------------------0--------------------------------- 

e|-----------------2-------3---------0----------0------------------------------------- 
b|------0^2------------------4-----3---3----------2--------0------3------------------- 
G|----2--------------------------------------2----------------------4----------------- 
D|------------------------------0---------------------------------------0-0-0-0-0-0-0- 
A|-0-------------------2-------------------0-------------------2---------------------- 
E|-------------0--------------------------------------0-0----------------------------- 

Chorus 3Xs 
E||------------------------||----------------------------------------- 
B||*----------------------*||----------------------------------------- 
G||------------------------||-7-7-7-7-7-7-7-7-7-7-7-7-7-7-7-7-7-7-7--- 
D||------------------------||-7-7-7-7-7-7-7-7-7-7-7-7-7-7-7-7-7-7-7--- 
A||*--4-4--4---x--5-5--5--*||-5-5-5-5-5-5-5-5-5-5-5-5-5-5-5-5-5-5-5--- 
E||---2-2--2---x--3-3--3---||----------------------------------------- 

Middle lead 
e|----------------------------------------------------------------------- 
b|--5-------------------------------5------------------------------------ 
G|----6-------------------------14----6----------------------------14---- 
D|------7-7/9--9-11-12-11-12-14-14------7-7/9-9-7-9-11-12-11-12-14-14---- 
A|------------------------------12---------------------------------12---- 
E|------------------------------12---------------------------------12---- 

e|--0--0--0---0-----0----------------------------0--0--0--0--0--0-----0--0--0--0--0--0- 
b|-10-10-10--10/12-12/14---------12----12-------12-12-12-12-12-12/17-17-17-15-15-15-15- 
G|-------------------------14-14----14------------------------------------------------- 
D|----------------------------------------14------------------------------------------- 
A|------------------------------------------------------------------------------------- 
E|------------------------------------------------------------------------------------- 

e|--0--0--0--0--0--0-0-0-0-0-0-0-0----------------------- 
b|-14-14-14-12-12-10-9-9-9-7-7-5-5-3-3-2^3^2-0-0--------- 
G|-----------------------------------------------2-2-2-2- 
D|------------------------------------------------------- 
A|------------------------------------------------------- 
E|------------------------------------------------------- 

Bridge 
e|------------------------------------------------------------ 
b|-2---------PM----------------------------------------------- 
G|-2---------===============---------------===============--7- 
D|-2---------2-2-2-2-2-2-2-2-=============-4-4-4-4-4-4-4-4--7- 
A|-0---------0-0-0-0-0-0-0-0-2-2-2-2-2-2-2-2-2-2-2-2-2-2-2--5- 
E|---------------------------0-0-0-0-0-0-0------------------5- 

Verse 
e|------------------------------------------------------- 
b|-2-2-2-2-2----------------3-3-3-3-3-3-7-7-7-7-7-7-7-7-- 
G|-2-2-2-2-2--1-1-1-1-1-1-1-4-4-4-4-4-4-7-7-7-7-7-7-7-7-- 
D|-2-2-2-2-2--2-2-2-2-2-2-2-4-4-4-4-4-4-7-7-7-7-7-7-7-7-- 
A|-0-0-0-0-0--2-2-2-2-2-2-2-2-2-2-2-2-2-5-5-5-5-5-5-5-5-- 
E|------------0-0-0-0-0-0-0-2-2-2-2-2-2-5-5-5-5-5-5-5-5-- 

e|------------------------------------------------------- 
b|-2-2-2-2-2----------------3-3-3-3-3-3-7-7-7-7-7-7-7-7-- 
G|-2-2-2-2-2--1-1-1-1-1-1-1-4-4-4-4-4-4-7-7-7-7-7-7-7-7-- 
D|-2-2-2-2-2--2-2-2-2-2-2-2-4-4-4-4-4-4-7-7-7-7-7-7-7-7-- 
A|-0-0-0-0-0--2-2-2-2-2-2-2-2-2-2-2-2-2-5-5-5-5-5-5-5-5-- 
E|------------0-0-0-0-0-0-0-2-2-2-2-2-2-5-5-5-5-5-5-5-5-- 

Chorus 3Xs 
E||------------------------||------ 
B||*----------------------*||------ 
G||------------------------||-7---- 
D||------------------------||-7---- 
A||*--4-4--4---x--5-5--5--*||-5---- 
E||---2-2--2---x--3-3--3---||-5---- 

|* = repeat sign 
*| = repeat sign 
^ = hammer-on/pull-off 
/ = slide up 
\ = slide down 
() = harmonics 
x = string mute 
^b = bend 
qr = Quick Rest 
T = tapping 
~~ = trill 
X\\ = pick slide 

pm 
== = Palm Mute 
		  

auto scroll beats size up size down change color hide chords drawings
tab show chords e-chords YouTube Clip e-chords hide all tabs e-chords go to top tab

share