Aerosmith

home > Aerosmith

You See Me Crying Tab

Aerosmith

Difficulty: nolevelnolevel

tuner correct add songbook print version text version save to e-mail
chordsukulelecavacokeyboardtabbassdrumsharmonicsflute Guitar Pro
chords

You See Me Crying

Year: 1993 - Album: Toys in the Attic

  		Intro: piano arranged for guitar

(Top tab represents right hand; bottom one represents left hand)
  | . . . | . . . | . . . | . . . | . . . | . . . | . . . | . . .
|-10------8-------4-------4-------3-------3-------3-------3-----------
|-10------8-------6-------3-------5-------5-------5-------5-----------
|-----9-------9-------5-------5---------------------------------------
|-------------------------------------5-------5-------5-------5-------
|---------------------------------------------------------------------
|---------------------------------------------------------------------
  | . . . | . . . | . . . | . . . | . . . | . . . | . . . | . . .
|---------------------------------------------------------------------
|---------------------------------------------------------------------
|---------------------------------------------------------------------
|-7---------------3-----------------------------------------4-5-6-----
|---------------------------------3-----------------5-6-7-8-----------
|---------------------------------------------------------------------
              *riff A
|---------------------------|
|---------------------------|
|-4-----4-------------------|
|-5-----5-----0---2---0---2-|
|-5-----5---------0---2---3-|
|-3-----3-----3-------------|

C            G     Am  G            F            (riff A)
You see me crying,     don't let it get you down
C            G     Am  G            F             (riff A)
You see me crying,  I'm back to the lost and found

Gm                          F     Bb                   Eb   D
Honey what you done to your head, honey was it words I said?
C                           F     Bb                   Eb D G (riff A)
Honey what you done to your head, honey was it words I said

SOLO: (starts at around 2:49 of the song)
|---------------------------------------------------------------------
|-12b--------------------12b---------------------15b------------------
|---------------------------------------------------------------------
|---------------------------------------------------------------------
|---------------------------------------------------------------------
|---------------------------------------------------------------------

|----------------------13---------------------------------------------
|-------11-13b-13b--13b---13r--11-------------------------------------
|-12-12---------------------------12----------------10----------------
|---------------------------------------10b-10b-10b----10r-8-10-------
|---------------------------------------------------------------10----
|---------------------------------------------------------------------

|---------------------------------------------------------------------
|-11-13b-11-13-11-----------------------------------------------------
|-----------------12----12-10----10-----------------------------------
|-----------------------------12----12-10-8-10-8----------------------
|------------------------------------------------10-8-----------------
|---------------------------------------------------------------------

|--------------3------------------------------------------------------
|---------------------------------------------------------------------
|-----------5b----5br--3--5------7br-5-7----7br-5---------------------
|-----3-3-5-----------------------------------------------------------
|-3/5-----------------------------------------------------------------
|---------------------------------------------------------------------

|---------------------------------------------------------------------
|---------------------------------------------------------------------
|--7br---5---7b-----5----------------------9-10-11-12-----12b---------
|----------------7-----7----------------------------------------------
|---------------------------3-----------------------------------------
|---------------------------------------------------------------------

|--------------------------------------------------15-----------------
|-----------------10--8--10--13--------15br--13-----------------------
|--9------12-9--------------------------------------------------------
|---------------------------------------------------------------------
|---------------------------------------------------------------------
|---------------------------------------------------------------------
	  

Full key step upFull key step up
Half key step upHalf key step up
Half key step downHalf key step down
Full key step downFull key step down
Search Paypal
auto scroll beats size up size down change color hide chords drawings
tab show chords e-chords YouTube Clip e-chords hide all tabs e-chords go to top tab