Aerosmith

home > Aerosmith

Movin' Out Tab

Aerosmith

Difficulty: BeginnerBeginner

by PAULLET3

tuner correct add songbook print version text version save to e-mail
chordsukulelecavacokeyboardtabbassdrumsharmonicsflute Guitar Pro
chords

Movin' Out

  		Movin' Out" 
   E-----------------------------------------------------| 
   B----------------------------5--x-x-------------------| 
   G----------------------------5--x-x-------------------| 
   D--5h7--7--7--7--5--7--5--7-----x-x--5h6h7--7--7--7--5| 
   A-------------------------------x-x-------------------| 
   E-----------------------------------------------------| 

   E-----------------------------------------------------| 
   B--------------------------------------------5--7--7b-| 
   G-------------x------------------------------5--7--7b-| 
   D-7--5--7-----x--5h6h7--7--7--7--5--7--5--7-----------| 
   A----------6--x---------------------------------------| 
   E-----------------------------------------------------| 

   E-----------------------------------------------------| 
   B-7r--5---------------------------------5--7b--7--7r--| 
   G-7r--5---------------------------5--7----------------| 
   D--------7--7--5h6h7--7--7--7--7----------------------| 
   A-----------------------------------------------------| 
   E-----------------------------------------------------| 

   E----------------------------| 
   B--5-------------------------| 
   G-----7--7--5h6h7--7--7--7---| 
   D----------------------------| 
   A----------------------------| 
   E----------------------------| 

   E---------------------------------------------------| 
   B---------------------------------------------------| 
   G-----2-------------2-----------4---2---0h2p0h2po---| 
   D--------2-------------2-----2----------------------| 
   A--0--------0--3p0--------0-------------------------| 
   E---------------------------------------------------| 
                                       (start lyrics) 
   E---------------------------------------------------| 
   B---------------------------------------------------| 
   G-----2-------------2-----2------------2------------| 
   D--------2--------------------------------2---------| 
   A--0--------0--3p0-----0------------0--------0--3p0-| 
   E-----------------------------3b--------------------| 

   E---------------------------------------------------| 
   B---------------------------------------------------| 
   G--2-----------4---2---2p0-------2-------------2----| 
   D-----2-----2-----------------------2---------------| 
   A--------0-------------------0---------0--3p0-----0-| 
   E---------------------------------------------------| 

   E------------3--------------------------------------| 
   B---------------------------------------------------| 
   G-2---3p2p0-----------2-------------2------------4--| 
   D------------------------2-------------2-----2------| 
   A------------------0--------0--3p0--------0---------| 
   E---------------------------------------------------| 

   E---------------------------------------------------| 
   B---------------------------------------------------| 
   G-2---2p0------2-------------2-----------4---2--2p0-| 
   D-----------------2-------------2-----2-------------| 
   A-----------0--------0--3p0--------0----------------| 
   E---------------------------------------------------| 


   E---------------------------------------------------| 
   B---2-2-2----------------2-2-2----------------2-2-2-| 
   G---2-2-2---4-----5------2-2-2---4-----5------2-2-2-| 
   D---2-2-2---4-----5------2-2-2---4-----5------2-2-2-| 
   A-----------2-----3--------------2-----3------------| 
   E---------------------------------------------------| 
                          
     
   E---------------------------------------------------| 
   B-----------------------------------2---------------| 
   G--4-----5-------5-----7------------2---------------| 
   D--4-----5-------5-----7------------2---------------| 
   A--2-----3-------3-----5----------------------------| 
   E----------------------------3b---------------------| 

   E---------------------------------------------------| 
   B---2-----------------------------------------------| 
   G---2------5-------7-------10-10----12--12----------| 
   D---2------5-------7-------10-10----12--12----------| 
   A----------3-------5--------8--8----10--10----------| 
   E---------------------------------------------------| 

   solo-                                           
   E--12b----------12b----------------5----------------12b--12-- 
   B-15b--15b-----15b--15b--15b-r/---5-5-5-5\10-\__/--15b------| 
   G------------------------------------------------------------ 
   D------------------------------------------------------------ 
   A------------------------------------------------------------ 
   E------------------------------------------------------------ 
                                             
   E-12--12h15p12--12b------12/--------5-5---------------------- 
   B---------------15b--15--------8b-r---5--\__/-----13b--13b--- 
   G-------------------------------------------------15b--15b--- 
   D------------------------------------------------------------ 
   A------------------------------------------------------------ 
   E------------------------------------------------------------ 
                                                                      
   E-----------------------------10----------------------------- 
   B-----------------------------12--\__/--13--13----15---15---- 
   G-13b-------11---------10~~-----------------15b---17b--17b-r- 
   D-15b--15b--13b---12b---------------------------------------- 
   A------------------------------------------------------------ 
   E------------------------------------------------------------ 
                                                 
   E-12--12----15--15------15-----15-----15/-------------------- 
   B-----15b---18b-----18b----18b----18b------------------------ 
   G------------------------------------------------------------ 
   D------------------------------------------------------------ 
   A------------------------------------------------------------ 
   E------------------------------------------------------------ 

    
   E--\17--17~~~~~----| 
   B------------------| 
   G------------------| 
   D------------------| 
   A------------------| 
   E------------------| 

    
   E---------------------------------------------------| 
   B---------------------------------------------------| 
   G------2p0-----2-----2p0-----2--0--------2p0-----4--| 
   D---0-------2-----0-------2--------2--0-------0-----| 
   A---------------------------------------------------| 
   E---------------------------------------------------| 

   E-----------------------| 
   B-----------------------| 
   G-----5p4-----2---0-----| 
   D--0-------0---------2--| 
   A-----------------------|
	  

Search Paypal
auto scroll beats size up size down change color hide chords drawings
tab show chords e-chords YouTube Clip e-chords hide all tabs e-chords go to top tab