Aerosmith

home > Aerosmith

Last Child (ver. 2) Tab

Aerosmith

Difficulty: IntermediateIntermediate

by halen666

tuner correct add songbook print version text version save to e-mail
chordsukulelecavacokeyboardtabbassdrumsharmonicsflute Guitar Pro
chords

Last Child (ver. 2)

  		Intro: 
  
E|------1-0-1---------1-0-1---------3-0-3---------3-0-3------| 
B|----3-------3-----3-------3-----3-------3-----3-------3----| 
G|--2-----------2-2-----------2-0-----------0-0-----------0--| 
D|-----------------------------------------------------------| 
A|-----------------------------------------------------------| 
E|-----------------------------------------------------------| 
  
E|--------4-0-4---------4-0-4-5-6--| 
B|------3-------3-----3-----3-4-5--| 
G|--2/4-----------4-4--------------| 
D|---------------------------------| 
A|---------------------------------| 
E|---------------------------------| 
  
riff: 
E|---------------------------------------| 
B|---------------------------------------| 
G|---------------------------------------| 
D|--------0-------0-2-------0------0-2---| 
A|----2-4---4-2-4------2-4---4-2-4-------| 
E|---------------------------------------| 
  

...Yes sir no sir don't come close ... 
E|-----------------------------------| 
B|-----------------------------------| 
G|-----------------------------------| 
D|--2-4-2-4-2-4-2-4-2-4-2-4-2-4-2-4--| 
A|--0-0-0-0-0-0-0-0-0-0-0-0-0-0-0-0--| 
E|-----------------------------------| 
  

Back to the riff: 
E|---------------------------------------| 
B|---------------------------------------| 
G|---------------------------------------| 
D|--------0-------0-2-------0-------0-2--| 
A|----2-4---4-2-4------2-4---4-2-4-------| 
E|---------------------------------------| 
  
  
  
  ... Home sweet home ... 
E|----------------------------------------------| 
B|----------------------------------------------| 
G|--11h12p11------------------------------------| 
D|-----------14-12-14-12--11h12p11--------------| 
A|---------------------------------14-12-14-10--| 
E|----------------------------------------------| 
	  

Search Paypal
auto scroll beats size up size down change color hide chords drawings
tab show chords e-chords YouTube Clip e-chords hide all tabs e-chords go to top tab