Aeropajitas

Resistencia

Aeropajitas

tabs

by  TARIKIKE

save to print version add songbook text version e-mail correct tuner
chordsukulelecavacokeyboardtabbassdrumsharmonicaflute Guitar Pro
close

there isn't a video lesson for this song

chords

Resistencia

	  		Esta cancion es muy facil y muy wena ... no me demore mucho en sakarla=) 
Ahi esta para los q no pudieron sakarla jeje 

 Riff 
Este riff es del verso 

: e|----10~~---10-------| : 
: B|-/8-----------8s0---| : 
: G|--------------------| : 
: D|--------------------| : 
: A|--------------------| : 
: E|--------------------| : 

Intro 

C5 C5 C5 C5 

e|----------------------------------------------------------------| 
B|--8-8-7-8-10-8-7-8-10-8-7-8-10-8-7-8-10-8-7-8-10-8-7------------| 
G|-----------------------------------------------------7--6-7-6s7-| 
D|----------------------------------------------------------------| 
A|----------------------------------------------------------------| 
E|----------------------------------------------------------------| 

e|---------------------------------------------------------------| 
B|-8-7---7-8-7---7-8-7---7-8-7---7-8-7---7-8-7-------------------| 
G|-----7-------7-------7-------7-------7-------7--6-7~~~~~~~~~~~-| 
D|---------------------------------------------------------------| 
A|---------------------------------------------------------------| 
E|---------------------------------------------------------------| 

Verso 

 Otra noche sin dormir estoy 
Riff 
 hace frio y busco calor 
G5        B5         E5 
 kiero verte kiero oir tu voz 
G5        B5             E5 
 me partiste el cielo gritandome 
 C5       D5 
 q todo esto es por mi 


Coro 

G5      B5      E5     C5 
 woooo...woooo...woooo  resistencia (x3) 


e|-------------------------------------------------------------------| 
B|-7/8-8-7-8-10-8-7-8-10-8-7-8-10-8-7-8-10-8-7-8-10-8-7--------------| 
G|------------------------------------------------------7--6-7-6s7---| 
D|-------------------------------------------------------------------| 
A|-------------------------------------------------------------------| 
E|-------------------------------------------------------------------| 

e|--------------------------------------------------------------| 
B|-8-7---7-8-7---7-8-7---7-8-7---7-8-7---7-8-7------------------| 
G|-----7-------7-------7-------7-------7-------7--6h7----7~~~~~-| 
D|--------------------------------------------------------------| 
A|--------------------------------------------------------------| 
E|--------------------------------------------------------------| 

Verso 

 A veces no recuerdo el dolor de un corazon 
Riff 
 A veces no recuerdo una lagrima un rencor 
G5         B5           E5 
 siento extrañas sensaciones al vivir 
G5         B5            E5      C5     D5 
 siento el odio q corre dentro de mi y todo esto es por mi 


Coro 

G5      B5      E5     C5 
 woooo...woooo...woooo  resistencia (x3) 

Solo 

e|--------------------------------------| 
B|-8-7--8-10--8-7--7h8p7h8p7h8p7h8p7----| 
G|--------------------------------------| 
D|--------------------------------------| 
A|--------------------------------------| 
E|--------------------------------------| 

e|----------------------------------------------| 
B|-8-7--8-10--8-10-10h12~~p10h12p10h12p10h12p10-| 
G|----------------------------------------------| 
D|----------------------------------------------| 
A|----------------------------------------------| 
E|----------------------------------------------| 

e|-15-14----14-15-14-17-14-15-14-17-14-15-14-15-14----| 
B|-------15----------------------------------------15-| 
G|----------------------------------------------------| 
D|----------------------------------------------------| 
A|----------------------------------------------------| 
E|----------------------------------------------------| 

RESISTENCIA !!! 


Coro 

G5      B5      E5     C5 
 woooo...woooo...woooo  resistencia (x2) 


Final 

e|-----10-10-----10-10-----10-10-----10-10---| 
B|-8-8-8--8--8-8-8--8--8-8-8--8--8-8-8--8----| 
G|-------------------------------------------| 
D|-------------------------------------------| 
A|-------------------------------------------| 
E|-------------------------------------------| 

e|-7-7-8-8-7-7-8-8-7-7-8-8-7-7-8-8-| 
B|-8-8-8-8-8-8-8-8-8-8-8-8-8-8-8-8-| 
G|---------------------------------| 
D|---------------------------------| 
A|---------------------------------| 
E|---------------------------------| 

e|-----10-10-----10-10-----10-10-----10-10--| 
B|-8-8-8--8--8-8-8--8--8-8-8--8--8-8-8--8---| 
G|------------------------------------------| 
D|------------------------------------------| 
A|------------------------------------------| 
E|------------------------------------------| 
                 C   D      G 
e|-7-7-8-8-7-7-8-8----------------| 
B|-8-8-8-8-8-8-8-8----------------| 
G|-----------------5~5s7-7-7------| 
D|-----------------5~5s7-7-7--5---| 
A|-----------------3~3s5-5-5--5---| 
E|----------------------------3---| 

*En la ultima parte se tiene q tokar como rasgueo para q suene mejor =) 
y la nota E se toka n el septimo traste de la 5ºcuerda,weno ya sabran,no? 

weno eso es todo, la letra no c si este bien pero la tablatura sii!! 
mando un saludo a toda la gente punker de hyo 
y a mis patas box y castor de mi banda "NadieNosVe"
		  

Full key step upFull key step up
Half key step upHalf key step up
Half key step downHalf key step down
Full key step downFull key step down
hide glossary

See also:

tabs Libido - Fantasma tabs Libido - Respirando tabs Pedro Suarez Vertiz - Cuando Pienses en Volver tabs Libido - Libido tabs No se quien y los no se cuantos - Las Torres tabs Libido - Un Nuevo Juego
e-chords

Other versions:

tabs Aeropajitas - Resistencia
auto scroll beats size up size down change color hide chords drawings
tab show chords e-chords YouTube Clip e-chords hide all tabs e-chords go to top tab

share