Aer

The Rain

Aer

tabs

by  ABELAMIN

save to print version add songbook text version e-mail correct tuner
chordsukulelecavacokeyboardtabbassdrumsharmonicaflute Guitar Pro
close

there isn't a video lesson for this song

chords

The Rain

	  		Intro: 

E|--------------------------3--3--------5------| 
B|--3--3--------4--4--------4--4--3--3--6------| 
G|--3--3--2--2--5--5--3--3--------3--3---------| 
D|--------3--3--------3--3---------------------| x1 
A|---------------------------------------------| 
E|---------------------------------------------| 

Verse: 

E|--------------------------3--3-----------------| 
B|--3--3--------4--4--------4--4--3--3--1--1-----| 
G|--3--3--2--2--5--5--3--3--------3--3--2--2-----| 
D|--------3--3--------3--3-----------------------| x4 
A|-----------------------------------------------| 
E|-----------------------------------------------| 

Chorus: 

E|--5--5--1--1--5--5--3--3--| 
B|--6--6--3--3--6--6--5--5--| 
G|--------------------------| x4 
D|--------------------------| 
A|--------------------------| 
E|--------------------------| 

                                                  
		  

See also:

tabs Michael Jackson - Beat it tabs Justin Timberlake - Rock Your Body tabs Eva Cassidy - Time After Time tabs Maroon 5 - She will be loved (intro) tabs Black Eyed Peas - Pump it intro tabs Michael Jackson - Smooth Criminal
e-chords

Other versions:

tabs Roxette - The Rain tabs Aer - The Rain tabs Biffy Clyro - The Rain (acoustic) tabs The Rolling Stones - The rain fall down tabs Led Zeppelin - The Rain Song tabs Led Zeppelin - The Rain Song (Ver. 2)
auto scroll beats size up size down change color hide chords drawings
tab show chords e-chords YouTube Clip e-chords hide all tabs e-chords go to top tab

share