Adventure Time

Friends

Adventure Time

tabs

by  TAMAMOREIRA

save to print version add songbook text version e-mail correct tuner
chordsukulelecavacokeyboardtabbassdrumsharmonicaflute Guitar Pro
close

there isn't a video lesson for this song

chords

Friends

	  		

Tuning: Standard 

e|---------------------------------------------------------------------------| 
B|---------------------------------------------------------------------------| 
G|--10--7-8-10---8-10-8-7-5--------------------------------------------------| 
D|-------------------------------8--10-12---8-10-8-7-5-----------------------| 
A|---------------------------------------------------------------------------| 
E|---------------------------------------------------------------------------| 

e|--------------------------------------8------------------------------------| 
B|----------------------------------------10-6-----------------6-------------| 
G|-------------------10-7---5-5-7-8---8--------8---7--5-7--5-7----7----------| 
D|----8----8-------8------------------------------------------------8--------| 
A|--8----8----8-10-----------------------------------------------------------| 
E|---------------------------------------------------------------------------| 

e|---------------------------------------------------------------------------| 
B|-------------------------8-11-13-15---15-13-11---11-8---11-11-8-6----------| 
G|----------------------10---------------------------------------------------| 
D|--5-8-5-8---8-5-8-3--------------------------------------------------------| 
A|---------------------------------------------------------------------------| 
E|---------------------------------------------------------------------------| 

e|---------------------------------------------------------------------------| 
B|---------------------------------------------------------------------------| 
G|--5-7-8-7-5-3--------------------------------------------------------------| 
D|---------------------------------------------------------------------------| 
A|---------------------------------------------------------------------------| 
E|---------------------------------------------------------------------------| 
		  

See also:

tabs Deep Purple - Sometimes a Feel Like Screaming tabs Deep Purple - Mistreated tabs Deep Purple - Smoke on the Water (ver. 2) tabs Ira! - Vitrine Viva tabs Doa - Sexyest Girl tabs Deep Purple - Ted The Mechanic
e-chords

Other versions:

tabs iOTA - Friends tabs Joe Satriani - Friends tabs Led Zeppelin - Friends tabs TV Themes - Friends tabs Keaton Henson - Friends tabs The Mary Janes - Friends
auto scroll beats size up size down change color hide chords drawings
tab show chords e-chords YouTube Clip e-chords hide all tabs e-chords go to top tab

share with facebook