Adoração e Vida

home > Adoração e Vida

Renda-se Tab

Adoração e Vida

Difficulty: ExpertExpert

by reynalty

tuner correct add songbook print version text version save to e-mail
chordsukulelecavacokeyboardtabbassdrumsharmonicsflute Guitar Pro
chords

Renda-se

(Walmir Alencar)

Key:  Bm More
Renda-se Key F#mF#m
Renda-se Key GmGm
Renda-se Key G#mG#m
Renda-se Key AmAm(one step down)
Renda-se Key A#mA#m(half step down)
Renda-se Key BmBm(original key)
Renda-se Key CmCm(half step up)
Renda-se Key C#mC#m(one step up)
Renda-se Key DmDm
Renda-se Key D#mD#m
Renda-se Key EmEm
Renda-se Key FmFm
  		E  ---------------------------------------------------------------------------------------------------10-12/14-- 
B ----------------------------------------------------------------------------12-12-10-12-------10-12----------- 
G ------7----7----7^9-9/11-9-7-----7-6-7/9------6-7---7-7/11-9----9/11-12-11--------------11-12----------------- 
D -7^9----9- --9----------------9-----------7/9-----5----------12----------------------------------------------- 
A -------------------------------------------------------------------------------------------------------------- 
E -------------------------------------------------------------------------------------------------------------- 

E –12--------12^14-15-14p12^14-17------------------12-14-12-15-14-12-------------------------------------------- 
B ----15---------------------------12-12-12-14-15---------------------15-14—-12^14^12—-11^12^11—-9^11^9—-7^8^7~~ 
G -------14----------------------------------------------------------------------------------------------------- 
D -------------------------------------------------------------------------------------------------------------- 
A---------------------------------------------------------------------------------------------------------------  
E -------------------------------------------------------------------------------------------------------------- 
	  

Full key step upFull key step up
Half key step upHalf key step up
Half key step downHalf key step down
Full key step downFull key step down
Search Paypal
auto scroll beats size up size down change color hide chords drawings
tab show chords e-chords YouTube Clip e-chords hide all tabs e-chords go to top tab